Cifra Club

Queima de Novo

Comunidade Católica Colo de Deus

Cifra: Completa (violão e guitarra)
tom: Db (forma dos acordes no tom de A) Capotraste na 4ª casa
[Intro] G9 Em 
        G9 Em Em7

E|-----11-------11---------11------9-------9---------9-|
B|-----------------------------------------------------|
G|---8----8---8----8---8---------8---8---8---8---8-----|
D|-9--------9--------9---9-----8-------8-------8---8---|
A|-----------------------------------------------------|
E|-----------------------------------------------------|

E|-----6-------6---------------------------------------|
B|-----------------------------------------------------|
G|---8---8---8---8---8---------------------------------|
D|-6-------6-------6---6-------------------------------|
A|-----------------------------------------------------|
E|-----------------------------------------------------|

             Em                 C
Sarça que só queima, que não se apaga
          G9                D
Somos Tua Igreja, Viemos Te adorar
          Em          C
Neste Teu altar somos sacrifício
        G9
Vem nos consumir
        D
Estamos aqui
Am7   D9/Gb
Aqui

[Refrão]

          G (A5 G5)                      D (E5 D5)
Foi a Tua Presença que nos trouxe aqui, Senhor
    C (D5 C5)               Em
Não desistiremos de Te perseguir
       D
Até te encontrar
              G (A5 G5)
Diante da Tua Glória
            D (E5 D5)
Não podemos ficar de pé
               C (D5 E5)
Mostra quem Tu és
        Em
Vem nos visitar
          D
Nos fazer queimar
    Em
De novo

( G9 Em )
( G9 Em Em7 )

E|-----11-------11---------11------9-------9---------9-|
B|-----------------------------------------------------|
G|---8----8---8----8---8---------8---8---8---8---8-----|
D|-9--------9--------9---9-----8-------8-------8---8---|
A|-----------------------------------------------------|
E|-----------------------------------------------------|

E|-----6-------6---------------------------------------|
B|-----------------------------------------------------|
G|---8---8---8---8---8---------------------------------|
D|-6-------6-------6---6-------------------------------|
A|-----------------------------------------------------|
E|-----------------------------------------------------|

             Em                 C
Sarça que só queima, que não se apaga
          G9                D
Somos Tua Igreja, Viemos Te adorar
          Em          C
Neste Teu altar somos sacrifício
        G9
Vem nos consumir
        D
Estamos aqui
Am7   D9/Gb
Aqui

[Refrão]

          G (A5 G5)                      D (E5 D5)
Foi a Tua Presença que nos trouxe aqui, Senhor
    C (D5 C5)               Em
Não desistiremos de Te perseguir
       D
Até te encontrar
              G (A5 G5)
Diante da Tua Glória
            D (E5 D5)
Não podemos ficar de pé
               C (D5 E5)
Mostra quem Tu és
        Em
Vem nos visitar
          D
Nos fazer queimar
    Em
De novo

[Ponte]

G9
Manda Teu fogo
G9
Manda Teu fogo
Em
Queima de novo
Em
Queima de novo

[Refrão]

          G (A5 G5)                      D (E5 D5)
Foi a Tua Presença que nos trouxe aqui, Senhor
    C (D5 C5)               Em
Não desistiremos de Te perseguir
       D
Até te encontrar
              G (A5 G5)
Diante da Tua Glória
            D (E5 D5)
Não podemos ficar de pé
               C (D5 E5)
Mostra quem Tu és
        Em
Vem nos visitar
          D
Nos fazer queimar
    Em
De novo
00:00 / 00:00
Outros vídeos desta música
Repetir
Outros vídeos desta música
Composição de Flávio Vitor Jr
Colaboração e revisão:
  • Lucas Meraki
3.894 exibições
  • Simplificar cifra
    • ½ Tom
    • A
    • Bb
    • B
    • C
    • Db
    • D
    • Eb
    • E
    • F
    • F#
    • G
    • Ab
  • Adicionar à lista

    0 comentários

    Ver todos os comentários

    Conseguiu tocar?

    0 Tocaram 0 Ainda não

    Grave um vídeo tocando Queima de Novo e nos envie!

    00:00 / 00:00
    Capítulos
    • Tocando a música
    • Apresentação / Equipamentos
    • Acordes introdução
    • Tocando introdução
    • Ensinando ritmo da introdução
    • Acordes primeira parte
    • Tocando primeira parte
    • Dicas refrão
    • Tocando refrão
    • Ensinando refrão
    • Dicas repetições
    • Tocando solo
    • Ensinando solo
    • Ensinando solo - Parte 1
    • Ensinando solo - Parte 2
    • Ensinando solo - Parte 3
    • Ensinando solo - Parte 4
    • Encerramento

    Cifra Club Pro

    Aproveite o Cifra Club com benefícios exclusivos e sem anúncios
    Cifra Club Pro
    Aproveite o Cifra Club com benefícios exclusivos e sem anúncios
    OK