Cifra Club

Aprenda

Maravilhosa Graça - This Is Amazing Grace (Phil Wickham)

Comunidade da Graça

Cifra: Principal (violão e guitarra)
tom: A
[Intro] A  D

E|-------------------------------------14----|
B|-15-14----14~--14----14--------14-17-------|
G|-------16---------16-----14-16-------------|
D|-------------------------------------------|
A|-------------------------------------------|
E|-------------------------------------------|

E|-------------------------------------------|
B|-15-14----14~--14----14--------14----------|
G|-------16---------16-----14-16-------------|
D|----------------------------------14h16-14-|
A|-------------------------------------------|
E|-------------------------------------------|

A                               D
  Quem tem poder sobre o pecado,  o seu amor é poderoso
F#m                E            D
   O rei da glória, o poderoso Deus
A                           D
  A terra treme com sua voz, e nos deixa maravilhados
F#m                E            D
   O rei da glória, o poderoso Deus

[Refrão]

              A                      D
Maravilhosa graça, teu amor que não falha
              F#m                 E
Tomou o meu lugar levou a minha cruz
                  A                   D
Teu sangue me salvou, minha dívida pagou
F#m               E                    D
   Jesus eu canto  porque hoje livre sou

A                                     D
  És quem traz paz ao caos dos homens, é escudo aos indefesos
F#m               E            D
  O rei da glória, O poderoso Deus
A
  Reina em justiça sobre as nações
D
  A luz que brilha na escuridão
F#m               E            D
  O rei da glória, o poderoso Deus

A
Digno é o cordeiro de Deus
D
Digno é o cordeiro que a morte venceu
Bm
Digno é o cordeiro de Deus
G
Digno é o cordeiro que a morte venceu
Compositor não encontrado.
175.365 exibições
    • ½ Tom
    • A
    • Bb
    • B
    • C
    • Db
    • D
    • Eb
    • E
    • F
    • F#
    • G
    • Ab
  • Adicionar à lista

    0 comentários

    Ver todos os comentários
    00:00 / 00:00
    Outros vídeos desta música
    Repetir Qualidade Automático
    Outros vídeos desta música
    00:00 / 00:00
    Automático

    Cifra Club Pro

    Aproveite o Cifra Club com benefícios exclusivos e sem anúncios
    Cifra Club Pro
    Aproveite o Cifra Club com benefícios exclusivos e sem anúncios
    OK