Cifra Club

Aprenda

Ventos de avivamento

Comunidade Evangélica Internacional da Zona Sul

Cifra: Principal (violão e guitarra)
tom: A
[Intro] D  E  F#m  D
        C#m  Bm  E4  E

E|--------------------------------------------19~-17~-12-14-12-|
B|-----10-12---15-14----------------14-15-14-------------------|
G|----9-------------14~-------14-16----------------------------|
D|----------------------14-16----------------------------------|
A|-------------------------------------------------------------|
E|-------------------------------------------------------------|

 A                 E/G#             F#m    F#m/E
O meu coração tem anseio de ver tua glória
  D                      A/C#           G    E4  
Enchendo a Terra como as águas cobrem o mar
   F#m                  C#m                  D7M
De ver se cumprindo na igreja a promessa que diz 
 Bm                   Bm/A            E  F/G  E
Aquele que crê obras ainda maiores fará
  A                   E/G#               F#m    F#m/E
O muito que nós temos visto não passa de gotas
  D                Bm               E
Diante daquilo que podes e queres fazer

           D  E  F#m  E/G#
Oh faz chover Senhor
 A                  E
Águas que reguem a terra
                    F#m
Que façam brotar as sementes
     D               E4  E
Dos frutos de um avivamento
          D   E  F#m  E/G#
Oh faz chover Senhor
 A                    E
Atende o teu povo que clama
                       F#m
Que anseia por ver o teu braço

 Bm                 E4      E       A
Agindo com poder e graça em nossa nação

Bm                 E4       E      A/C#
Agindo com poder e graça em nossa nação
 Bm                 E4       E      A/C#
Agindo com poder e graça em nossa nação
 Bm                E                A
Agindo com poder e graça em nossa nação

E|---------------------------------------------------------|
B|---------------------------------------------------------|
G|---------------------------------------------------------|
D|--2--4--6-7-6-7--9--------11-9---------------------------|
A|---------------------------------------------------------|
E|-----------------9--7-9/10-----12-14--16/17--16-18//19---|
Composição de Edson Feitosa
77.942 exibições
    • ½ Tom
    • A
    • Bb
    • B
    • C
    • Db
    • D
    • Eb
    • E
    • F
    • F#
    • G
    • Ab
  • Adicionar à lista

    0 comentários

    Ver todos os comentários
    00:00 / 00:00
    Outros vídeos desta música
    Repetir Qualidade Automático
    Outros vídeos desta música
    00:00 / 00:00
    Automático

    Cifra Club Pro

    Aproveite o Cifra Club com benefícios exclusivos e sem anúncios
    Cifra Club Pro
    Aproveite o Cifra Club com benefícios exclusivos e sem anúncios
    OK