Cifra Club

Ventos de avivamento

Comunidade Evangélica Internacional da Zona Sul

Cifra: Principal (violão e guitarra)
tom: A
[Intro] D  E  F#m  D
        C#m  Bm  E4  E

E|--------------------------------------------19~-17~-12-14-12-|
B|-----10-12---15-14----------------14-15-14-------------------|
G|----9-------------14~-------14-16----------------------------|
D|----------------------14-16----------------------------------|
A|-------------------------------------------------------------|
E|-------------------------------------------------------------|

[Primeira Parte]
 A                 E/G#             F#m    F#m/E
O meu coração tem anseio de ver tua glória
  D                      A/C#           G    E4  
Enchendo a Terra como as águas cobrem o mar
   F#m                  C#m                  D7M
De ver se cumprindo na igreja a promessa que diz
 Bm                   Bm/A            E  F/G  E
Aquele que crê obras ainda maiores fará
  A                   E/G#               F#m    F#m/E
O muito que nós temos visto não passa de gotas
  D                Bm               E
Diante daquilo que podes e queres fazer

[Refrão]

           D  E  F#m F# G#
Oh faz chover Senhor
 A                  E
Águas que reguem a terra
                    F#m
Que façam brotar as sementes
     D               E4  E
Dos frutos de um avivamento
          D   E  F#m  F# G#
Oh faz chover Senhor
 A                    E
Atende o teu povo que clama
                       F#m
Que anseia por ver o teu braço
 Bm                 E4      E       A    F# E
Agindo com poder e graça em nossa nação

[Primeira Parte]

 A                 E/G#             F#m    F#m/E
O meu coração tem anseio de ver tua glória
  D                      A/C#           G    E4  
Enchendo a Terra como as águas cobrem o mar
   F#m                  C#m                  D7M
De ver se cumprindo na igreja a promessa que diz
 Bm                   Bm/A            E  F/G  E
Aquele que crê obras ainda maiores fará
  A                   E/G#               F#m    F#m/E
O muito que nós temos visto não passa de gotas
  D                Bm               E
Diante daquilo que podes e queres fazer

[Refrão]

           D  E  F#m F# G#
Oh faz chover Senhor
 A                  E
Águas que reguem a terra
                    F#m
Que façam brotar as sementes
     D               E4  E
Dos frutos de um avivamento
          D   E  F#m  F# G#
Oh faz chover Senhor
 A                    E
Atende o teu povo que clama
                       F#m
Que anseia por ver o teu braço
 Bm                 C#             A    
Agindo com poder e graça em nossa nação

[Base Solo]

 D  E  F#m  D  C#m  Bm  E4  E

Solo

E|--------------------------------------------------------------|
B|-------------------------------------14~-12-14-15~------------|
G|--------------14-14-----14-14---------------------------------|
D|--7/9-9~-9/11-11---9/11-11---9/11-11/12------------14p16-14~--|
A|--------------------------------------------------------------|
E|--------------------------------------------------------------|

E|--12p14-14--14-16-17--16-17-19--17-19-19b21~19-17~~---|
B|------------------------------------------------------|
G|-------------------| ----------------------------------|
D|------------------------------------------------------|
A|------------------------------------------------------|
E|------------------------------------------------------|

E|--17-16-14-------------------------------------------------|
B|-----------17-15-14-17-15-14-------------------------------|
G|-----------------------------16-14-13-16-14-13--14/16------|
D|------------------------------------------------------14~--|
A|-----------------------------------------------------------|
E|-----------------------------------------------------------|

[Refrão]

           D  E  F#m F# G#
Oh faz chover Senhor
 A                  E
Águas que reguem a terra
                    F#m
Que façam brotar as sementes
     D               E4  E
Dos frutos de um avivamento
          D   E  F#m  F# G#
Oh faz chover Senhor
 A                    E
Atende o teu povo que clama
                       F#m
Que anseia por ver o teu braço
 Bm                 E4      E       A    
Agindo com poder e graça em nossa nação

[Final]

Bm                 E4       E      A/C#
Agindo com poder e graça em nossa nação
 Bm                 E4       E      A/C#
Agindo com poder e graça em nossa nação
 Bm                E                A
Agindo com poder e graça em nossa nação
00:00 / 00:00
Outros vídeos desta música
Repetir
Outros vídeos desta música
Composição de Edson Feitosa
82.870 exibições
    • ½ Tom
    • A
    • Bb
    • B
    • C
    • Db
    • D
    • Eb
    • E
    • F
    • F#
    • G
    • Ab
  • Adicionar à lista

    0 comentários

    Ver todos os comentários

    Entre para oCifra Club PRO

    Tenha acesso a benefícios exclusivos no App e no Site

    • Chega de anúncios

    • Prioridade de compra em lançamentos

    • Mais recursos no app do Afinador

    • Atendimento Prioritário

    • Descontos nos produtos Cifra Club

    • Ajude a produzir mais conteúdo

    00:00 / 00:00

    Cifra Club Pro

    Aproveite o Cifra Club com benefícios exclusivos e sem anúncios
    Cifra Club Pro
    Aproveite o Cifra Club com benefícios exclusivos e sem anúncios
    OK