Aba (part. Ton Carfi)

Kemuel

Composição de: David Marx
tom: F# (forma dos acordes no tom de F ) Capotraste na 1ª casa
[Intro] C  Am7  C  Am7

   C                     Am7
E|-----0---0------0---0------3---------3----|
B|-------------------------1-----1---1-----1|
G|---0---0------0---0----------2---------2--|
D|------------------------------------------|
A|-3----------3----------0---------0--------|
E|------------------------------------------|

   C                     Am7
E|-----0---0------0---0------3---------3----|
B|-------------------------1-----1---1-----1|
G|---0---0------0---0----------2---------2--|
D|------------------------------------------|
A|-3----------3----------0---------0--------|
E|------------------------------------------|

[Primeira Parte]

   C                     Am7
E|-----0---0------0---0------3---------3----|
B|-------------------------1-----1---1-----1|
G|---0---0------0---0----------2---------2--|
D|------------------------------------------|
A|-3----------3----------0---------0--------|
E|------------------------------------------|

   C                     Am7
E|-----0---0------0---0------3---------3----|
B|-------------------------1-----1---1-----1|
G|---0---0------0---0----------2---------2--|
D|------------------------------------------|
A|-3----------3----------0---------0--------|
E|------------------------------------------|

   C                     Am7
E|-----0---0------0---0------3---------3----|
B|-------------------------1-----1---1-----1|
G|---0---0------0---0----------2---------2--|
D|------------------------------------------|
A|-3----------3----------0---------0--------|
E|------------------------------------------|

   Bb                   C
E|--------------------------0---0------0---0|
B|-----3---3-----3---3----------------------|
G|------------------------0---0------0---0--|
D|---3---3-----3---3------------------------|
A|-1---------1----------3----------3--------|
E|------------------------------------------|

C                 Am7            C                   Am7
  Não me sinto só,    pois Tua graça achou em mim morada 
C           Am7         Bb                 C
  E me acolheu, tudo mudou em mim, tudo mudou em mim
C                 Am7            C                   Am7
  Não me sinto só,    pois Tua graça achou em mim morada 
C           Am7         Bb                 C
  E me acolheu, tudo mudou em mim, tudo mudou em mim

[Ponte]

Gm                    Dm7
Aba agora eu posso dizer tudo que sinto 
Gm                    Bb
Aba mesmo sem eu merecer sou filho 
Gm                    Dm7
Aba agora eu posso dizer tudo que sinto 
Gm                    Bb
Aba mesmo sem eu merecer sou filho 

Gm                    Dm7
Aba agora eu posso dizer tudo que sinto 
Gm                    Bb
Aba mesmo sem eu merecer sou filho 
Gm                    Dm7
Aba agora eu posso dizer tudo que sinto 
Gm                    Bb
Aba mesmo sem eu merecer sou filho 

[Refrão]

Bb                  C                  Dm7  Am
   Teu jugo é suave   e o Teu fardo é leve 
Bb                         C                     Dm7  C
   Descanso encontro em Ti,  pois o Teu fardo é leve
Bb                  C                  Dm7  Am
   Teu jugo é suave   e o Teu fardo é leve 
Bb                         C                     Dm7  C
   Descanso encontro em Ti,  pois o Teu fardo é leve

[Segunda Parte]

Gm                    Dm7
Aba agora eu posso dizer tudo que sinto 
Gm                    Bb
Aba mesmo sem eu merecer sou filho 
Gm                    Dm7
Aba agora eu posso dizer tudo que sinto 
Gm                    Bb
Aba mesmo sem eu merecer sou filho 

Gm                    Dm7
Aba agora eu posso dizer tudo que sinto 
Gm                    Bb
Aba mesmo sem eu merecer sou filho 
Gm                    Dm7
Aba agora eu posso dizer tudo que sinto 
Gm                    Bb
Aba mesmo sem eu merecer sou filho   

( Gm  F/A  Bb  Dm7  C )
( Gm  F/A  Bb  Dm7  C )

[Refrão]

Bb                  C                  Dm7  Am
   Teu jugo é suave   e o Teu fardo é leve 
Bb                         C                     Dm7  C
   Descanso encontro em Ti,  pois o Teu fardo é leve
Bb                  C                  Dm7  Am
   Teu jugo é suave   e o Teu fardo é leve 
Bb                         C                     Dm7  C
   Descanso encontro em Ti,  pois o Teu fardo é leve

[Ponte]

Gm                    Dm7
Aba agora eu posso dizer tudo que sinto
Gm                    Bb
Aba mesmo sem eu merecer sou filho
Página 1 / 1

Letras e título
Acordes e artista

resetar configurações
OK