Cifra Club

Aprenda

O Teu Amor

Kemuel

Cifra: Principal (violão e guitarra)
Tom: F#m (forma dos acordes no tom de Em) Capotraste na 2ª casa
[Intro] C9  Em7/B  D
        C9  Em7/B  D

   C9               Em7/B
E|-----0-------0--------0-------0-----------|
B|---3---3---3---3----3---3---3---3---------|
G|------------------------------------------|
D|------------------------------------------|
A|-3-------3--------2-------2---------------|
E|------------------------------------------|

   D
E|-----2-------2-------2-------2------------|
B|---3---3---3---3---3---3---3---3----------|
G|------------------------------------------|
D|-0-------0-------0-------0----------------|
A|------------------------------------------|
E|------------------------------------------|

   C9               Em7/B
E|-----0-------0--------0-------0-----------|
B|---3---3---3---3----3---3---3---3---------|
G|------------------------------------------|
D|------------------------------------------|
A|-3-------3--------2-------2---------------|
E|------------------------------------------|

   D
E|-----2-------2-------2-------2------------|
B|---3---3---3---3---3---3---3---3----------|
G|------------------------------------------|
D|-0-------0-------0-------0----------------|
A|------------------------------------------|
E|------------------------------------------|

[Primeira Parte]

[Dedilhado Padrão]

   C9/E             Em7/B
E|-----0-------0--------0-------0-----------|
B|---3---3---3---3----3---3---3---3---------|
G|------------------------------------------|
D|-2-------2--------2-------2---------------|
A|------------------------------------------|
E|------------------------------------------|

   D9/F#
E|-----0-------0-------0-------0------------|
B|---3---3---3---3---3---3---3---3----------|
G|------------------------------------------|
D|-4-------4-------4-------4----------------|
A|------------------------------------------|
E|------------------------------------------|

C9/E          Em7  D9/F#               
     Me escolheu        e tornou-me filho
C9/E        Em7  D9/F#          
     Restaurou,       o que estava perdido
C9/E       Em7  D9/F#           
     Me olhou,        quando ninguém me via
C9/E  Em7  D9/F#
      Ahhh

[Pré-Refrão]

 C9/E          Em7
Ninguém tanto me amou
D9/F#
E por mim se entregou
 C9/E           Em7
Não sabia o que era amar
D9/F#
E me ensinou

[Refrão]

            C9/E  Em7  D9/F#
O que é o amor,      amor
        C9/E  Em7   D9/F#
O teu amor,       amor
            C9/E  Em7  D9/F#
O que é o amor,      amor
        C9/E  Em7   D9/F#
O teu amor,       amor

[Primeira Parte]

C9          Em7  D/F#               
   Me escolheu       e tornou-me filho
C9        Em7  D/F#          
   Restaurou,      o que estava perdido
C9       Em7  D/F#           
   Me olhou,       quando ninguém me via
C9  Em7  D/F#
    Ahhh

[Pré-Refrão]

 C9            Em7
Ninguém tanto me amou
D/F#
E por mim se entregou
 C9             Em7
Não sabia o que era amar
D/F#
E me ensinou

 C9            Em7
Ninguém tanto me amou
D/F#
E por mim se entregou
 C9             Em7
Não sabia o que era amar
D/F#
E me ensinou

[Refrão]

            C9  Em7  D/F#
O que é o amor,    amor
        C9  Em7   D/F#
O teu amor,     amor
            C9  Em7  D/F#
O que é o amor,    amor
        C9  Em7   D/F#
O teu amor,     amor

( C9  Em7  D/F# )
( C9  Em7  D/F# )
( C9  Em7  D/F# )
( C9  Em7  D/F# )
( C9  Em7  D/F# )
( C9  Em7  D/F# )
( C9  Em7  D/F# )
( C9  Em7  D/F# )

[Pré-Refrão]

 C9            Em7
Ninguém tanto me amou
D/F#
E por mim se entregou
 C9             Em7
Não sabia o que era amar
D/F#
E me ensinou

[Refrão]

            C9  Em7  D/F#
O que é o amor,    amor
        C9  Em7   D/F#
O teu amor,     amor
            C9  Em7  D/F#
O que é o amor,    amor
        C9  Em7   D/F#
O teu amor,     amor

[Final] C9  Em7  D/F#
        C9  Em7  D/F#
Composição de David Marx
Colaboração e revisão:
  • Thiago Almeida
6.443 exibições
    • ½ Tom
    • Am
    • Bbm
    • Bm
    • Cm
    • C#m
    • Dm
    • Ebm
    • Em
    • Fm
    • F#m
    • Gm
    • G#m
  • Adicionar à lista

    0 comentários

    Mostrar mais comentários
    00:00 / 00:00
    outros vídeos desta música
    repetir qualidade Automático
    Outros vídeos desta música
    00:00 / 00:00
    Automático
    OK