Cifra Club

Have You Seen Me Lately?

Counting Crows

Cifra: Principal (violão e guitarra)
tom: E
Note: Throughout most of the song, guitar 1 is completely on the
left channel, and guitar 2 is completely right.

Intro:
Guitar 1 plays this four times,
|--------------------|
|--------------0--0--|
|--------------9--9--|
|--2--2--------9--9--|
|--2--2--------7--7--|
|--0--0--0--0--0--0--|
                                                                      

On the last repeat, guitar 2 enters with:
|--0--0--0--0--0--0--0--0--|
|--0--0--0--0--0--0--0--0--|
|--9--9--9--9--9--9--9--9--|
|--9--9--9--9--9--9--9--9--|
|--------------------------|
|--------------------------|

Then both guitars go to an F#m and then an A chord:
|--2--2--2--2--|--5--5--5--5--|
|--2--2--2--2--|--5--5--5--5--|
|--2--2--2--2--|--6--6--6--6--|  guitar 1 replaces the F# on the 1st
|--4--4--4--4--|--7--7--7--7--|  string with an A (xx4225)
|--------------|--0--0--0--0--|
|--------------|--------------|

Then back to the E:
Guitar 1                Guitar 2
|--------------------|-|--0--0--0--0--0--0--0--0--|
|--------------------|-|--0--0--0--0--0--0--0--0--|
|--------------9--9--|-|--1--1--1--1--1--1--1--1--| play twice
|--2--2--------9--9--|-|--2--2--2--2--2--2--2--2--|
|--2--2--------7--7--|-|--------------------------|
|--0--0--0--0--0--0--|-|--------------------------|

Verse:
Guitar 2 plays the same E F#m A progression it did in the intro
Guitar 1 plays the part tabbed out:
E      E               F#m                   A           E
|--0--|------------0--|---------------2-----|--5-----5--|--0--|
|--0--|------------0--|------------2-----2--|-----2--2--|--0--|
|--1--|-----14--13\1--|------------2--------|--------2--|--1--|
|--2--|-----14--14-2--|------------4--------|-----------|--2--|
|--2--|------------2--|-------9\4-----------|-----------|--2--|
|--0--|--x---------0--|--2/9----------------|-----------|--0--|

E                E
Get away from me                         F#m
just get away from me this isn't gonna be easy
A
but I don't need you
E
believe me
you got a piece of me
but it's just a little piece of me
but I don't need anyone
and these days I feel like I'm fading away
     F#m              A                  E
like sometimes when I hear myself on the radio

Both guitars play fill 1 here:

|-------------------------------|
|-------------------------------|
|-------------------------------| Fill 1
|--4b(6)r4--2--4b(6)r4--2-------|
|-------------------------------|
|--------------------------7\0--|


Pre-chorus:
Both guitars play this:
|-----|----------------|-----|----------------|
|--2--|--2-------------|--2--|--2-------------|
|--2--|--2-------------|--2--|--2-------------|
|--2--|--4-------2-----|--2--|--4-------2-----|
|--0--|--4--2/4-----4--|--0--|--4--2/4-----4--|
|-----|----------------|-----|----------------|
                                                                      

           Abrupt, brief rest here (*)                                        
------------------------|-----------*--------------|
2--2--2--2--2--2--2--2--|--2--2--2--*--------------|
2--2--2--2--2--2--2--2--|--2--2--2--*--------------|
2--2--2--2--2--2--2--2--|--4--2--4--*--4--2--4--2--|
0--0--0--0--0--0--0--0--|--4--4--4--*--4--4--4--4--|
------------------------|-----------*--------------|

A                F#m
Have you seen me lately?
A                F#m
Have you seen me lately?
A                F#m
Have you seen me lately?

Chorus:
Both guitars:
Bm7    Asus4 Bm7  E     A  (sus4) Bm7   Asus4 Bm7
|--2--2-----2--|--0--0--0--0--0--|--2--2-----2--|
|--3--3--3--3--|--0--0--2--3--2--|--3--3--3--3--|
|--2--2--2--2--|--1--1--2--2--2--|--2--2--2--2--|
|--4--4--2--4--|--2--2--2--2--2--|--4--4--2--4--|
|--2--2--0--2--|--2--2--0--0--0--|--2--2--0--2--|
|--------------|--0--0-----------|--------------|

E     A (sus4)         Bm7  Asus4 Bm7 E      A (sus4)
0--0--0--0--0--0--0--|--2--2-----2--|--0--0--0--0--0--|
0--0--3--3--3--2--3--|--3--3--3--3--|--0--0--2--3--2--|
1--1--2--2--2--2--2--|--2--2--2--2--|--1--1--2--2--2--|
2--2--2--2--2--2--2--|--4--4--2--4--|--2--2--2--2--2--|
2--2--0--0--0--0--0--|--2--2--0--2--|--2--2--0--0--0--|
0--0-----------------|--------------|--0--0-----------|

Bm           A              E
----2-----------0--------|-----0--|
-------3-----------2-----|--------|
/4--------4--2--------2--|--1-----|
-------------------------|--------|
-------------------------|--------|
-------------------------|--------|
Bm7 Asus4 Bm7    E     A (sus4) 
I was out on the radio starting to change
somewhere out in America 
it's starting to rain
could you tell me the things you remember about me
Bm           A       E
and have you seen me lately?

I remember me
and all the little things
that make up a memory
like she said she loved to watch me sleep
like she said,
"it's the breathing in and out and in and..."

Have you seen me lately?

I was out on the radio starting to change
somewhere out in America it's starting to rain
could you tell me the things
you remember about me
and have you seen me lately?

Solo:
Gtr 1 plays solo, Gtr 2 plays chords given, mostly as triplets:
      E                          E
---|--------------------------|--------------------------|
---|--------------------------|--------------------------|
---|-----9--7--7p6--6--6h7/9--|-----9--7--7p6--6--6h7/9--|
---|--------------------------|--------------------------|
---|--------------------------|--------------------------|
12\|--0-----------------------|--0-----------------------|
                                                                      

E                          E              F#m 
------------------------|--------------|-------------------|
------------------------|--------------|--14---------------|
---9--7--7p6--6--6h7/9--|--------------|--14b(16)--14--13--|
------------------------|--9--9/11--9--|-------------------|
------------------------|--------------|-------------------|
0-----------------------|--------------|-------------------|

A                         E 
0---0---0---0---0--0---|--0---0---0---0---0-------------|
12--14--12--10--9--10--|--12--14--12--10--9--7--5~~~--5\|
-----------------------|--------------------------------|
-----------------------|--------------------------------|
-----------------------|--------------------------------|
-----------------------|--------------------------------|
                                              

E                   E    
0---------0------|--0-0--0--------------|
0--0h2/5--7b(9)--|--0/5--7b(9)--7--(9)--|
-----------------|----------------------|
-----------------|----------------------|
-----------------|----------------------|
-----------------|----------------------|
                                                                      

E                                                                      
0---------------------------------------|
0--0h2/5--7b(9)r7--5--7b(9)r7--5--7--5--|
----------------------------------------|
----------------------------------------|
----------------------------------------|
----------------------------------------|

E                     F#m              A      
7--7--7--5--4--------|----0----4----|--0----2----0--|
---------------7--5--|--------------|---------------|
---------------------|/2---/4---/2--|---/4---/2-----|
---------------------|--------------|---------------|
---------------------|--------------|---------------|
---------------------|--------------|---------------|


E                      E  
0h2--2--2/4--4h5p4--|--4/5--5--5/7--7--7--7--7--| <- hold last note
--------------------|---------------------------|
--------------------|---------------------------|
--------------------|---------------------------|
--------------------|---------------------------|
--------------------|---------------------------|

Guitar 1 holds the last E chord from the solo

I guess I thought that someone would notice
I guess I thought somebody would say something
         F#m     A
if I was missing
can't you see me?

Both guitar play this over the next two lines:
|-----------------|-----------------|
|----9--9--9------|----9--9--9------|
|----9--9--9--14--|----9--9--9--14--|
|--2-9--9--9--14--|--2-9--9--9--14--|
|--2/7--7--7--14--|--2/7--7--7--14--|
|--0-0--0--0--0---|--0-0--0--0--0---|
                                                                      
                                                                    
-------------|----------------------|
--9--9----9--|--9-9--9--9--9--9--9--|
--9--9----9--|--9-9--9--9--9--9--9--|
2-9--9----9--|--9-9--9--9--9--9--9--|
2/7--7---/7--|--7/7--7--7--7--7--7--|
0-0--0--0-0--|--0-0--0--0--0--0--0--|

come on color me in
come on color me in
F#m
give me your blue rain
A
give me your black sky
E
give me your green eyes
come on give me your white skin
come on give me your white skin
come on give me your white skin

Back to the chorus:
I was out on the radio starting to change
somewhere out in America
it's starting to rain
could you tell me the things you remember about me
and have you seen me lately?

Repeat the last line twice more, and end on E
00:00 / 00:00
Outros vídeos desta música
Repetir
Outros vídeos desta música
Composição de Adam Duritz
5.389 exibições
    • ½ Tom
    • A
    • Bb
    • B
    • C
    • Db
    • D
    • Eb
    • E
    • F
    • F#
    • G
    • Ab
  • Adicionar à lista

    0 comentários

    Ver todos os comentários

    Entre para oCifra Club PRO

    Tenha acesso a benefícios exclusivos no App e no Site

    • Chega de anúncios

    • Prioridade de compra em lançamentos

    • Mais recursos no app do Afinador

    • Atendimento Prioritário

    • Descontos nos produtos Cifra Club

    • Ajude a produzir mais conteúdo

    00:00 / 00:00

    Cifra Club Pro

    Aproveite o Cifra Club com benefícios exclusivos e sem anúncios
    Cifra Club Pro
    Aproveite o Cifra Club com benefícios exclusivos e sem anúncios
    OK