Cifra Club

CPM 22

CPM 22

Cifra: Principal
exibições 22.942
Tom: B
      B5   B5  G#5  F#5
E|---------------------------|
B|---------------------------|
G|--4-4--4-4--4-4--3-3-------|(3x)
D|---------------------------|
A|--2-2--2-2-----------------|
E|------------4-4--2-2-------|

       E5  E5   F#5
E|---------------------------|
B|---------------------------|
G|---4-4--4-4--3-3-----------|
D|---------------------------|
A|---------------------------|
E|---0-0--0-0--2-2-----------|

B5
Então, escute esse som

Que não fala de amor
            G#5
Mas, com certeza
                 F#5
O sentimento é real

B5
Me lembro como foi bom
                  G#5                   F#5
Durante 15 anos lutando por um mesmo ideal
B5
Expor os meus pensamentos nunca foi fácil
     G#5                   F#5
Acertando ou errando é normal

       E5          F#5
Mas voltei, estou aqui
            B5
Pra te escrever talvez, ou melhor, te dizer
         G#5                F#5
O que vivemos desde a Caixa Postal
          B5
E, quando olho pra trás

A luta foi leal
        G#5              F#5
Temos motivos para comemorar
           B5
Depois de muitas viagens, calotes, roubadas
   G#5               F#5
E muita incerteza no ar

       E5          F#5
Não cansei, estou aqui


       B   Bb    C#   B
E|---------------------------|
B|---------------------------|
G|---------------------------|
D|---------------------------|
A|---6-6--4-4--7-7--6-6------|
E|---7-7--6-6--9-9--7-7------|


Mais uma vez
Mais uma vez,
de uma vez
Mais uma vez

      E5          F#5
Por vocês que nos seguem
     B5       B5/Bb        G#5
Agradeço pela força pra chegar até aqui
       E5             F#5
Ter um reconhecimento nacional
       B5           B5/Bb      G#5
Ver de perto todo o povo brasileiro
        E5                    F#5
Com uma banda de verdade pra tocar
         B5
Viver em paz

Solo 4x: B5  F#5  G#5

       B5
E aqui estamos de novo

Esse é o sétimo disco
           G#5             F#5
Nossa trajetória tem seu valor
        B5
Agora é cair na estrada pra matar a saudade

       G#5
Das cidades que já fizemos show
          B5
Depois de tanta amizade, tapetes puxados
   G#5                  F#5
A chama ainda não se apagou

      E5          F#5
Por vocês que nos seguem
    B5        B5/Bb        G#5
Agradeço pela força pra chegar até aqui
        E5            G#5
Ter um reconhecimento nacional
       B5           B5/Bb     G#5
Ver de perto todo o povo brasileiro

      E5                 F#5
Não viemos para revolucionar
       E5                    F#5
Só que agora não tem como ignorar
    E5                     F#5
Uma banda de verdade pra tocar

       B   Bb    C#   B
E|---------------------------|
B|---------------------------|
G|---------------------------|
D|---------------------------|
A|---6-6--4-4--7-7--6-6------|
E|---7-7--6-6--9-9--7-7------|

Viver em paz
Acordes para:
    Composição: BadauíColaboração e revisão:
    • Guilherme César
    • Afonso Cartana

    0 comentários

      mostrar mais comentários

      Conseguiu tocar?

      4tocaram0ainda não

      Grave um vídeo tocando CPM 22 e mande pra gente!

      00:00 / 00:00
      outros vídeos desta música
      repetirqualidadeautomática
      Outro vídeos desta música
        00:00 / 00:00
        automática
        OK