Cifra Club

Depois de Horas

CPM 22

Cifra: Principal (violão e guitarra)
tom: Ab
                        F          D#      G#
Tento esquecer os problemas, que não são poucos
                   F      D#             G#
Passo a semana inteira mudando as coisas de lugar
(riff 1)                 F            D#        G#
E aonde estava você? Te procurei até tarde,
                F               D#    G#
E aonde está você? Que não me vem buscar!!!
               F           D#      G#
As vezes eu esqueço que o mundo é louco
                 F         D#         G#
Passo a semana inteira lendo disgraça no jornal
(riff 1)                  F          D#      G#
Tudo pode acontecer nas ruas desta cidade
                F       D#      G#
E aonde está você? Cansei de esperar

F       D#      (G# D#) (3x)
Saio as 3 da manhã
F        D#         (G# D#) (3x)
Perco as chaves de casa
F                                       (G# D#) (3x)
Não encontrei ninguém que me dissesse algo que prestassse
C#                D#
Eu não aguento mais
                              G#
""lugares cheios  pensamentos vazios ""

(solo)
E|----------------------------------------------------------|
B|----------------------------------------------------------|
G|-----------------------------5----5----5------------------|
D|666666665555>8-888-666666666---66---66---66>11-11-11-11-10|
A|----------------------------------------------------------|
E|----------------------------------------------------------|

E|----------------------------------------------------------|
B|----------------------------------------------------------|
G|---------------13-------13-------13-------13--------------|
D|10-10-10-10-13----13-13----13-13----13-13-----------------|
A|----------------------------------------------------------|
E|----------------------------------------------------------|

E|-11-11-11-------------------------------------------------|
B|-----------14-14-14-13-13-11-11-11-11-9-11-9--------------|
G|----------------------------------------------------------|(3x)
D|----------------------------------------------------------|
A|----------------------------------------------------------|
E|----------------------------------------------------------|

(riff 1)                 F            D#      G#
Tudo pode acontecer nas ruas desta cidade
                F          D#        G#
E quando amanhecer tudo volta ao normal

(riff 1)
E|-------------------------------------------------------|
B|-----10-----12-----13----------------------------------|
G|-------------------------------------------------------|
D|-------------------------------------------------------|
A|-----8------10-----11----------------------------------|
E|-------------------------------------------------------|
00:00 / 00:00
Outros vídeos desta música
Repetir
Outros vídeos desta música
Composição de Badauí
Colaboração e revisão:
  • guilherme dossi
  • rafael bononi
  • Roberto Kono
15.092 exibições
    • ½ Tom
    • A
    • Bb
    • B
    • C
    • Db
    • D
    • Eb
    • E
    • F
    • F#
    • G
    • Ab
  • Adicionar à lista

    0 comentários

    Ver todos os comentários

    Conseguiu tocar?

    2 Tocaram 0 Ainda não

    Grave um vídeo tocando Depois de Horas e nos envie!

    Entre para oCifra Club PRO

    Tenha acesso a benefícios exclusivos no App e no Site

    • Chega de anúncios

    • Prioridade de compra em lançamentos

    • Mais recursos no app do Afinador

    • Atendimento Prioritário

    • Descontos nos produtos Cifra Club

    • Ajude a produzir mais conteúdo

    00:00 / 00:00

    Cifra Club Pro

    Aproveite o Cifra Club com benefícios exclusivos e sem anúncios
    Cifra Club Pro
    Aproveite o Cifra Club com benefícios exclusivos e sem anúncios
    OK