Cifra Club

Filme Que Eu Nunca Vi

CPM 22

Cifra: Principal (violão e guitarra)
tom: D
Intro 4x: G  D  A  A

D                                       A        G
Ás vezes eu me esqueço de rezar e isso não é um bom sinal
D                                      A       G
Ás vezes eu percebo que o mundo está cada vez mais banal

D                    G                      A
Acho que estamos perdendo a noção do que é real igual ao
G              A
filme que eu nunca vi
D                   G                 A               G
Sempre temos a esperança que na vida real o mal não ganhe
    A
do bem no fim

( D  A  G  G )

( D  A  G  G  A )

D
Pergunto eu vê se é normal
                A      G
Acordo e não quero ler o jornal
D                                            A
Ligo a TV, abro a geral, e pra alguns é só folia
   G
É carnaval

D                    G                      A
Acho que estamos perdendo a noção do que é real igual ao
G              A
filme que eu nunca vi
D                   G                 A               G
Sempre temos a esperança que na vida real o mal não ganhe
    A
do bem no fim

Solo 4x: D  G  Em  G  A
E|--------------------------------------------------------------------------------------------------
B|-------------------------------7-7-7-10-7-------------------------------------7-7-7-10-7-------7--
G|-7---7-7-9-7---7-7-9-7---7-9-7------------9-7-9-7---7-7-9-7---7-7-9-7---7-9-7------------9-7-9----
D|--------------------------------------------------------------------------------------------------
A|--------------------------------------------------------------------------------------------------
E|--------------------------------------------------------------------------------------------------

E|--------------------------------------------------------------------------------------------------
B|-10-7-10-7-----10-7-10-7-----7/8-8-8-8-8-7-9-------7---10-7-10-7-----10-7-10-7--------------------
G|-----------7-------------7-------------------7-7-9---------------7-------------7------------------
D|--------------------------------------------------------------------------------------------------
A|--------------------------------------------------------------------------------------------------
E|--------------------------------------------------------------------------------------------------

E|----------------------------------------
B|-7/8-8-8-8-8-7-10-7---7-----------------
G|--------------------9---7---------------
D|----------------------------------------
A|----------------------------------------
E|----------------------------------------

D                                           A     G
Às vezes eu pretendo ser um presidente, um líder mundial
D                                     A     G
Às vezes eu desejo ter uma casa com jardim no quintal

D                    G                      A
Acho que estamos perdendo a noção do que é real igual ao
G              A
filme que eu nunca vi
D                   G                 A               G
Sempre temos a esperança que na vida real o mal não ganhe
    A
do bem no fim
00:00 / 00:00
Outros vídeos desta música
Repetir
Outros vídeos desta música
Composição de Luciano
Colaboração e revisão:
  • marcos latchuk
  • Matheus Bianchi
10.056 exibições
    • ½ Tom
    • A
    • Bb
    • B
    • C
    • Db
    • D
    • Eb
    • E
    • F
    • F#
    • G
    • Ab
  • Adicionar à lista

    0 comentários

    Ver todos os comentários

    Conseguiu tocar?

    2 Tocaram 1 Ainda não

    Grave um vídeo tocando Filme Que Eu Nunca Vi e nos envie!

    Entre para oCifra Club PRO

    Tenha acesso a benefícios exclusivos no App e no Site

    • Chega de anúncios

    • Prioridade de compra em lançamentos

    • Mais recursos no app do Afinador

    • Atendimento Prioritário

    • Descontos nos produtos Cifra Club

    • Ajude a produzir mais conteúdo

    00:00 / 00:00

    Cifra Club Pro

    Aproveite o Cifra Club com benefícios exclusivos e sem anúncios
    Cifra Club Pro
    Aproveite o Cifra Club com benefícios exclusivos e sem anúncios
    OK