Cifra Club

O Chão Que Ela Pisa

CPM 22

Cifra: Principal (violão e guitarra)
tom: F#
Intro:
 
Base: F#5 B5 - 2x

E|--------------------------------------------------------------------------------|
B|---6p7-6-4-6-4-2-4-(2)----------------------------------------------------------|
G|-------------------3-43-(3)-44-33----------------------------------------------| 2x
D|-------------------------------------44-66--------------------------------------|
A|--------------------------------------------------------------------------------|
E|--------------------------------------------------------------------------------|

F#5
  Por trás de cada passo seu
B5
  Retratos e histórias
C#5         D#5 C#5
  Vão lembrar
B5
  Sempre estarei bem perto de você
F#5
  Por trás de cada passo seu
B5
  Sempre escuto as ruas
C#5          D#5  C#5
  Pra lembrar
B5
  O dia andamos junto por aqui
D#5
  em tardes tristes eu pensei
C#5    B5     
  Onde foi que eu errei 
D#5 
  Mas um dia ruim 
C#5       B5
  Andado só pelas ruas
 
    B5            
   Se eu puder     
   F#5               
   Te encontrar      
   D#5                               
   Qualquer hora em
        C#5               
   Qualquer lugar          
   B5
   Aonde vou estar
     
Final:
F#5 C#5 B5

No finalzinho tem esse solinho (Enviado por Jamilie)
E|-----------------------------------------------|
B|-----------------------------------------------|
G|-------------------3/43------------------------| 2x
D|-------------------------4---------------------|
A|---------------------------2-------------------|
E|-----------------------------------------------|
Composição de Badauí / Luscius / Paulo Anhaia / Portoga / Ricardo / Wally
Colaboração e revisão:
  • João Silva
  • Mariana Aranha
  • Guilherme souza
126.248 exibições
  • Simplificar cifra
    • ½ Tom
    • A
    • Bb
    • B
    • C
    • Db
    • D
    • Eb
    • E
    • F
    • F#
    • G
    • Ab
  • Adicionar à lista

    0 comentários

    Ver todos os comentários

    Conseguiu tocar?

    10 Tocaram 0 Ainda não

    Grave um vídeo tocando O Chão Que Ela Pisa e nos envie!

    00:00 / 00:00
    Outros vídeos desta música
    Repetir Qualidade Automático
    Outros vídeos desta música
    00:00 / 00:00
    Automático

    Cifra Club Pro

    Aproveite o Cifra Club com benefícios exclusivos e sem anúncios
    Cifra Club Pro
    Aproveite o Cifra Club com benefícios exclusivos e sem anúncios
    OK