Cifra Club

Um Minuto Para o Fim do Mundo

CPM 22

Tab de baixo: Principal
[Introdução] 


Parte 1 ( tocar 2x )
F|-11-11-11-11--11-11-11-11--11-11-11-11--------|
C|-9--9--9--9---9--9--9--9---0--0--0--0---------|
G|----------------------------------------------|
D|----------------------------------------------|

F|-11-11-11-11--9-9-9-9--9-9-9-9--7-7-7-7-------|
C|-0--0--0--0---7-7-7-7--7-7-7-7--5-5-5-5-------|
G|----------------------------------------------|
D|----------------------------------------------|

F|-7-7-7-7/-------------------------------------|
C|-5-5-5-5/-------------------------------------|
G|----------------------------------------------|
D|----------------------------------------------|


[Primeira parte]

Me sinto só,mas quem é que nunca...

Parte 1 de 2( tocar 4x )
F|-11-11-11-11--11-11-11-11--11-11-11-11--------|
C|-9--9--9--9---9--9--9--9---0--0--0--0---------|
G|----------------------------------------------|
D|----------------------------------------------|

F|-11-11-11-11--9-9-9-9--9-9-9-9--7-7-7-7-------|
C|-0--0--0--0---7-7-7-7--7-7-7-7--5-5-5-5-------|
G|----------------------------------------------|
D|----------------------------------------------|

F|-7-7-7-7/-------------------------------------|
C|-5-5-5-5/-------------------------------------|
G|----------------------------------------------|
D|----------------------------------------------|

Parte 2 de 2
F|-11-11-11-11--11-11-11-11--11-11-11-11--------|
C|-9--9--9--9---9--9--9--9---0--0--0--0---------|
G|----------------------------------------------|
D|----------------------------------------------|

F|-11-11-11-11--9-9-9-9--9-9-9-9--7-7-7-7-------|
C|-0--0--0--0---7-7-7-7--7-7-7-7--5-5-5-5-------|
G|----------------------------------------------|
D|----------------------------------------------|

F|-7-7-7-7/-11----------------------------------|
C|-5-5-5-5/-9-----------------------------------|
G|----------------------------------------------|
D|----------------------------------------------|


[Pré refrão] 

O tempo corre contra mim...

Parte 1 ( Tocar 3x )
F|----------------------------------------------|
C|----------------------------------------------|
G|-2-2--2-2-2-2--2-2--2-2-2---------------------|
D|---------------------------3-3--3-3-3-3--3-3--|

F|----------------------------------------------|
C|----------------------------------------------|
G|-------5-5--5-5-5-5--5-5--5-5-5---------------|
D|-3-3-3---------------------------5-5--5-5-5-5-|

F|----------------------------------------------|
C|----------------------------------------------|
G|----------------------------------------------|
D|-5-5--5-5-5-----------------------------------|


[Refrão] 

Quando estou com você...

Parte 1 de 2
F|----------------------------------------------|
C|----------------------------------------------|
G|-5-5--5-5-5-5--5-5--5-5-5---------------------|
D|---------------------------5-5--5-5-5-3--3-3--|

F|----------------------------------------------|
C|--------------------------------------------7-|
G|-------5-5--5-5-5-5--5-5--5-5-5---------------|
D|-3-3-3---------------------------5-5--5-5-5---|

F|----------------------------------------------|
C|-7-7--7-7-7-----------------------------------|
G|----------------------------------------------|
D|----------------------------------------------|

Parte 2 de 2
F|----------------------------------------------|
C|----------------------------------------------|
G|-5-5--5-5-5-5--5-5--5-5-5---------------------|
D|--------------------------5-5--5-5-5-5--5-5---|

F|----------------------------------------------|
C|----------------------------------------------|
G|----------------------------------------------|
D|-5-5-5--3-3--3-3-3-3-0-5-5--5-5-5--5-5-5------|


[Solo de Guitarra]

Parte 1 de 2  
F|----------------------------------------------|
C|----------------------------------------------|
G|-5-5--5-5-5-5--5-5--5-5-5-5--0-0--0-0-0-0-----|
D|----------------------------------------------|

F|----------------------------------------------|
C|----------------------------------------------|
G|-0-0--0-0-0-0--2-2--2-2-2-2--2-2--2-2-2-2-----|
D|----------------------------------------------|

F|----------------------------------------------|
C|----------------------------------------------|
G|----------------------------------------------|
D|-3-3--3-3-3-3--3-3--3-3-3-3-------------------|

Parte 2 de 2
F|----------------------------------------------|
C|----------------------------------------------|
G|-5-5--5-5-5-5--5-5--5-5-5-5--0-0--0-0-0-0-----|
D|----------------------------------------------|

F|----------------------------------------------|
C|----------------------------------------------|
G|-0-0--0-0-0-0--2-2--2-2-2-2--2-2--2-2-2-2-----|
D|----------------------------------------------|

F|----------------------------------------------|
C|----------------------------------------------|
G|----------------------------------------------|
D|-3--3-3-3-3--3-3-3-3--3-3-3-3-----------------|


[Segunda parte]

Volto o relógio para trás tentando...

Parte 1 ( Tocar 4x )

F|----------------------------------------------|
C|----------------------------------------------|
G|-2-2--2-2-2-2--2-2--2-2-2---------------------|
D|---------------------------3-3--3-3-3-3--3-3--|

F|----------------------------------------------|
C|----------------------------------------------|
G|-------5-5--5-5-5-5--5-5--5-5-5---------------|
D|-3-3-3---------------------------5-5--5-5-5-5-|

F|----------------------------------------------|
C|----------------------------------------------|
G|----------------------------------------------|
D|-5-5--5-5-5-----------------------------------|


[Refrão 2]

(Tocar 2x)

Quando estou com você...

Parte 1 de 2
F|----------------------------------------------|
C|----------------------------------------------|
G|-5-5--5-5-5-5--5-5--5-5-5---------------------|
D|---------------------------5-5--5-5-5-3--3-3--|

F|----------------------------------------------|
C|--------------------------------------------7-|
G|-------5-5--5-5-5-5--5-5--5-5-5---------------|
D|-3-3-3---------------------------5-5--5-5-5---|

F|----------------------------------------------|
C|-7-7--7-7-7-----------------------------------|
G|----------------------------------------------|
D|----------------------------------------------|

Parte 2 de 2
F|----------------------------------------------|
C|----------------------------------------------|
G|-5-5--5-5-5-5--5-5--5-5-5---------------------|
D|--------------------------5-5--5-5-5-5--5-5---|

F|----------------------------------------------|
C|----------------------------------------------|
G|----------------------------------------------|
D|-5-5-5--3-3--3-3-3-3-0-5-5--5-5-5--5-5-5------|


[Introdução 2] ( Final )

Parte 1 de 3  
F|----------------------------------------------|
C|----------------------------------------------|
G|-5-5--5-5-5-5--5-5--5-5-5-5--0-0--0-0-0-0-----|
D|----------------------------------------------|

F|----------------------------------------------|
C|----------------------------------------------|
G|-0-0--0-0-0-0--2-2--2-2-2-2--2-2--2-2-2-2-----|
D|----------------------------------------------|

F|----------------------------------------------|
C|----------------------------------------------|
G|----------------------------------------------|
D|-3-3--3-3-3-3--3-3--3-3-3-3-------------------|

Parte 2 de 3
F|----------------------------------------------|
C|----------------------------------------------|
G|-5-5--5-5-5-5--5-5--5-5-5-5--0-0--0-0-0-0-----|
D|----------------------------------------------|

F|----------------------------------------------|
C|----------------------------------------------|
G|-0-0--0-0-0-0--2-2--2-2-2-2--2-2--2-2-2-2-----|
D|----------------------------------------------|

Parte 3 de 3
F|----------------------------------------------|
C|----------------------------------------------|
G|----------------------------------------------|
D|-3-3-3-3--3-3-3-3--3-3-3-3--3-3-3-3-----------|

F|----------------------------------------------|
C|----------------------------------------------|
G|----------------------------------------------|
D|-3-3-3-3--3-3-3-3--3-3-3-3--3-3-3-3-----------|

F|----------------------------------------------|
C|----------------------------------------------|
G|----------------------------------------------|
D|-3-3-3-3--3-3-3-3--3-3-3-3--3-3-3-3-----------|

F|----------------------------------------------|
C|-7--------------------------------------------|
G|-5--------------------------------------------|
D|----------------------------------------------|
exibições 118.609
Composição: Rodrigo Koala / Wally Colaboração e revisão:

0 comentários

mostrar mais comentários

Conseguiu tocar?

22 tocaram 0 ainda não

Grave um vídeo tocando Um Minuto Para o Fim do Mundo e mande pra gente!

00:00 / 00:00
outros vídeos desta música
repetir qualidade Automático
Outros vídeos desta música
00:00 / 00:00
Automático
Capítulos
  • Abertura
  • Apresentação/Equipamentos
  • Afinação
  • Ensinando a Introdução / Primeira Parte
  • Ensinando Primeira Parte
  • Ensinando Pré-Refrão / Refrão
  • Ensinando Solo / Segunda Parte
  • Ensinando o Segundo Refrão / Final
  • Encerramento
OK