Cifra Club

Um Minuto Para o Fim do Mundo

CPM 22

Tab de baixo: Principal
exibições 116.395
Introdução 

Parte 01 de 01 ( tocar 2x )

F|-11-11-11-11--11-11-11-11--11-11-11-11--------|
C|-9--9--9--9---9--9--9--9---0--0--0--0---------|
G|----------------------------------------------|
D|----------------------------------------------|

F|-11-11-11-11--9-9-9-9--9-9-9-9--7-7-7-7-------|
C|-0--0--0--0---7-7-7-7--7-7-7-7--5-5-5-5-------|
G|----------------------------------------------|
D|----------------------------------------------|

F|-7-7-7-7/-------------------------------------|
C|-5-5-5-5/-------------------------------------|
G|----------------------------------------------|
D|----------------------------------------------|

Primeira parte

Me sinto só,mas quem é que nunca...

Parte 01 de 02 ( tocar 4x )

F|-11-11-11-11--11-11-11-11--11-11-11-11--------|
C|-9--9--9--9---9--9--9--9---0--0--0--0---------|
G|----------------------------------------------|
D|----------------------------------------------|

F|-11-11-11-11--9-9-9-9--9-9-9-9--7-7-7-7-------|
C|-0--0--0--0---7-7-7-7--7-7-7-7--5-5-5-5-------|
G|----------------------------------------------|
D|----------------------------------------------|

F|-7-7-7-7/-------------------------------------|
C|-5-5-5-5/-------------------------------------|
G|----------------------------------------------|
D|----------------------------------------------|

Parte 02 de 02

F|-11-11-11-11--11-11-11-11--11-11-11-11--------|
C|-9--9--9--9---9--9--9--9---0--0--0--0---------|
G|----------------------------------------------|
D|----------------------------------------------|

F|-11-11-11-11--9-9-9-9--9-9-9-9--7-7-7-7-------|
C|-0--0--0--0---7-7-7-7--7-7-7-7--5-5-5-5-------|
G|----------------------------------------------|
D|----------------------------------------------|

F|-7-7-7-7/-11----------------------------------|
C|-5-5-5-5/-9-----------------------------------|
G|----------------------------------------------|
D|----------------------------------------------|

Pré refrão 

O tempo corre contra mim...

Parte 01 de 01 ( Tocar 3x )

F|----------------------------------------------|
C|----------------------------------------------|
G|----------------------------------------------|
D|-7-7--7-7-7-7--7--7-7-7--3-3--3-3-3-3--3--3-3-|

F|----------------------------------------------|
C|----------------------------------------------|
G|----5-5--5-5-5-5--5--5-5-5--------------------|
D|-3--------------------------5-5--5-5-5-5--5---|

F|----------------------------------------------|
C|----------------------------------------------|
G|----------------------------------------------|
D|-5-5-5----------------------------------------|

Refrão 

Quando estou com você...

Parte 01 de 02

F|----------------------------------------------|
C|----------------------------------------------|
G|-5-5--5-5-5-5--5--5-5-5-----------------------|
D|------------------------5-5--5-5-5-3--3--3-3--|

F|----------------------------------------------|
C|---------------------------------------7-7----|
G|---5-5--5-5-5-5--5--5-5-5---------------------|
D|-3-------------------------5-5--5-5-5---------|

F|----------------------------------------------|
C|-7-7-7-7--------------------------------------|
G|----------------------------------------------|
D|----------------------------------------------|

Parte 02 de 02

F|----------------------------------------------|
C|----------------------------------------------|
G|-5-5--5-5-5-5--5--5-5-5-----------------------|
D|------------------------5-5--5-5-5-5--5--5-5--|

F|----------------------------------------------|
C|----------------------------------------------|
G|----------------------------------------------|
D|-5--3-3-3--3-3-3-3-0-5-5-5--5-5-5-5-----------|

Solo de Guitarra

Parte 01 de 02  

F|----------------------------------------------|
C|----------------------------------------------|
G|-5-5--5-5-5-5--5-5--5-5-5-5-------------------|
D|-----------------------------5-5--5-5-5-5-----|

F|----------------------------------------------|
C|----------------------------------------------|
G|----------------------------------------------|
D|-5-5--5-5-5-5--7-7--7-7-7-7--7-7--7-7-7-7-----|

F|----------------------------------------------|
C|----------------------------------------------|
G|----------------------------------------------|
D|-3-3--3-3-3-3--3-3--3-3-3-3-------------------|

Parte 02 de 02

F|----------------------------------------------|
C|----------------------------------------------|
G|-5-5--5-5-5-5--5-5--5-5-5-5-------------------|
D|-----------------------------5-5--5-5-5-5-----|

F|----------------------------------------------|
C|----------------------------------------------|
G|----------------------------------------------|
D|-5-5--5-5-5-5--7-7--7-7-7-7--7-7--7-7-7-7-----|

F|----------------------------------------------|
C|----------------------------------------------|
G|----------------------------------------------|
D|-3--3-3-3-3-3---3-3-3-3--3-3-3----------------|

Segunda parte

Volto o relógio para trás tentando...

Parte 01 de 01 ( Tocar 4x )

F|----------------------------------------------|
C|----------------------------------------------|
G|----------------------------------------------|
D|-7-7--7-7-7-7--7-7--7-7-7--3-3--3-3-3-3--3-3--|

F|----------------------------------------------|
C|----------------------------------------------|
G|--------5-5--5-5-5-5--5-5--5-5-5--------------|
D|-3-3-3----------------------------5-5--5-5-5--|

F|----------------------------------------------|
C|----------------------------------------------|
G|----------------------------------------------|
D|-5--5-5--5-5-5--------------------------------|

Refrão 02 ( Tocar 2x )

Quando estou com você...

Parte 01 de 02

F|----------------------------------------------|
C|----------------------------------------------|
G|-5-5--5-5-5-5--5--5-5-5-----------------------|
D|------------------------5-5--5-5-5-3--3--3-3--|

F|----------------------------------------------|
C|---------------------------------------7-7-7--|
G|---5-5--5-5-5-5--5--5-5-5---------------------|
D|-3-------------------------5-5--5-5-5---------|

F|----------------------------------------------|
C|-7-7-7-7--------------------------------------|
G|----------------------------------------------|
D|----------------------------------------------|

Parte 02 de 02

F|----------------------------------------------|
C|----------------------------------------------|
G|-5-5--5-5-5-5--5--5-5-5-----------------------|
D|------------------------5-5--5-5-5-5--5--5-5--|

F|----------------------------------------------|
C|----------------------------------------------|
G|----------------------------------------------|
D|-5--3-3-3--3-3-3-3-0-5-5-5--5-5-5-5-----------|

Introdução 02 ( Final )

Parte 01 de 03  

F|----------------------------------------------|
C|----------------------------------------------|
G|-5-5--5-5-5-5--5-5--5-5-5-5-------------------|
D|-----------------------------5-5--5-5-5-5-----|

F|----------------------------------------------|
C|----------------------------------------------|
G|----------------------------------------------|
D|-5-5--5-5-5-5--7-7--7-7-7-7--7-7--7-7-7-7-----|

F|----------------------------------------------|
C|----------------------------------------------|
G|----------------------------------------------|
D|-3-3--3-3-3-3--3-3--3-3-3-3-------------------|

Parte 02 de 03

F|----------------------------------------------|
C|----------------------------------------------|
G|-5-5--5-5-5-5--5-5--5-5-5-5-------------------|
D|-----------------------------5-5--5-5-5-5-----|

F|----------------------------------------------|
C|----------------------------------------------|
G|----------------------------------------------|
D|-5-5--5-5-5-5--7-7--7-7-7-7--7-7--7-7-7-7-----|

Parte 03 de 03

F|----------------------------------------------|
C|----------------------------------------------|
G|----------------------------------------------|
D|-3-3-3-3--3-3-3-3--3-3-3-3--3-3-3-3-----------|

F|----------------------------------------------|
C|----------------------------------------------|
G|----------------------------------------------|
D|-3-3-3-3--3-3-3-3--3-3-3-3--3-3-3-3-----------|

F|----------------------------------------------|
C|----------------------------------------------|
G|----------------------------------------------|
D|-3-3-3-3--3-3-3-3--3-3-3-3--3-3-3-3-----------|

F|----------------------------------------------|
C|-7--------------------------------------------|
G|-5--------------------------------------------|
D|----------------------------------------------|
Composição: Rodrigo Koala / WallyColaboração e revisão:

0 comentários

    mostrar mais comentários

    Conseguiu tocar?

    21tocaram0ainda não

    Grave um vídeo tocando Um Minuto Para o Fim do Mundo e mande pra gente!

    00:00 / 00:00
    outros vídeos desta música
    repetirqualidadeAutomático
    Outro vídeos desta música
      00:00 / 00:00
      OK