Cifra Club

Um Pouco de Paciência

CPM 22

Cifra: Principal (violão e guitarra)
tom: G
Riff 1:
E|------------------------------------------------
B|--9-9--7--5--5-5-5-5-5-5--7-7--5--5-5-5-5-5-5---
G|--x-x--x--x--x-x-x-x-x-x--x-x--x--x-x-x-x-x-x---
D|--7-7--5--3--3-3-3-3-3-3--5-5--3--3-3-3-3-3-3---
A|------------------------------------------------
E|------------------------------------------------

E|-----------------------------------------------------------------
B|--9-9--7--5-5-5-5-5-5-5--7-7-7--5-5-5--7-7-7--5-5-5-5-5-5--------
G|--x-x--x--x-x-x-x-x-x-x--x-x-x--x-x-x--x-x-x--x-x-x-x-x-x--------
D|--7-7--5--3-3-3-3-3-3-3--5-5-5--3-3-3--5-5-5--3-3-3-3-3-3--------
A|-----------------------------------------------------------------
E|-----------------------------------------------------------------

E|------------------------------------------------
B|--9-9--7--5--5-5-5-5-5-5--7-7--5--5-5-5-5-5-5---
G|--x-x--x--x--x-x-x-x-x-x--x-x--x--x-x-x-x-x-x---
D|--7-7--5--3--3-3-3-3-3-3--5-5--3--3-3-3-3-3-3---
A|------------------------------------------------
E|------------------------------------------------

E|-------------------------------------------------------
B|--9-9--7--5-5-5-5-5-5-5--7-7-7--5-5-5--11-11-11-9-9-9--
G|--x-x--x--x-x-x-x-x-x-x--x-x-x--x-x-x--x--x--x--x-x-x--
D|--7-7--5--3-3-3-3-3-3-3--5-5-5--3-3-3--9--9--9--7-7-7--
A|-------------------------------------------------------
E|-------------------------------------------------------

E|-------------------------------------------
B|---11-11-11-9-9-9-7-7-7-5-5-5--5h7-7-5-5b--
G|---x--x--x--x-x-x-x-x-x-x-x-x--------------
D|---9--9--9--7-7-7-5-5-5-3-3-3--------------
A|-------------------------------------------
E|-------------------------------------------

E|------------------------------------------
B|------------------------------------------
G|----------9h------------------------------
D|---9-9-9--9h--9-9--7/9-9-9-7/9-9-9--------
A|---9-9-9--7h--9-9--7/9-9-9-7/9-9-9--------
E|---7-7-7------7-7--5/7-7-7-5/7-7-7--------

Riff 2:
E|--------------
B|--------------
G|----------9h--
D|---9-9-9--9h--   (7x)
A|---9-9-9--7h--
E|---7-7-7------

Riff 3:
E|-------------------------------------
B|-------------------------------------
G|-------------------------------------
D|---9-9-9--9-9-9-9-9-9--7-7-7-7-7-7-7-
A|---9-9-9--9-9-9-9-9-9--7-7-7-7-7-7-7-
E|---7-7-7--7-7-7-7-7-7--5-5-5-5-5-5-5-

E|-------------------------------------------------
B|-------------------------------------------------
G|---9-9-9-----9-9---------------------------------
D|---9-9-9--9h-9-9--9-9-9-9-9-9-9-9-9-9-7-7-7-7-7--
A|---7-7-7--9h-7-7--9-9-9-9-9-9-9-9-9-9-7-7-7-7-7--
E|----------7h------7-7-7-7-7-7-7-7-7-7-5-5-5-5-5--

(Riff 1)

Solo 1:
E|---------------------------------------------------------
B|--5H7-7-5-7-7-7-7-7-5-5-5--5H7-7-5-7-7-7-9-9-9-10-10-10--
G|---------------------------------------------------------
D|---------------------------------------------------------
A|---------------------------------------------------------
E|---------------------------------------------------------

E|-------------------------------------------------
B|--5H7-7-5-7-7-7-7-7-5-5-5--10-9-7-9-7-5-7-5-6-5--
G|-------------------------------------------------
D|-------------------------------------------------  (2x)
A|-------------------------------------------------
E|-------------------------------------------------

E|----------------------------------------
B|---5h7-7-5-5b--5------------------------
G|-----------------4b---------------------
D|---------------------2b--7-7--7-7--7-7--
A|-------------------------7-7--7-7--7-7--
E|-------------------------5-5--5-5--5-5--

(Riff 3)

(Riff 1)

Solo 2:
E|---------------------------------------------------------
B|--5H7-7-5-7-7-7-7-7-5-5-5--5H7-7-5-7-7-7-9-9-9-10-10-10--
G|---------------------------------------------------------
D|---------------------------------------------------------
A|---------------------------------------------------------
E|---------------------------------------------------------

E|-------------------------------------------------------
B|--5H7-7-5-7-7-7-7-7-5-5-5--11-11-11-9-9-9-7-7-7-5-5-5--
G|-------------------------------------------------------  (2x)
D|-------------------------------------------------------
A|-------------------------------------------------------
E|-------------------------------------------------------
00:00 / 00:00
Outros vídeos desta música
Repetir
Outros vídeos desta música
Composição de Luciano
Colaboração e revisão:
  • Eduardo M.
2.517 exibições
    • ½ Tom
    • A
    • Bb
    • B
    • C
    • Db
    • D
    • Eb
    • E
    • F
    • F#
    • G
    • Ab
  • Adicionar à lista

    0 comentários

    Ver todos os comentários

    Conseguiu tocar?

    0 Tocaram 0 Ainda não

    Grave um vídeo tocando Um Pouco de Paciência e nos envie!

    Entre para oCifra Club PRO

    Tenha acesso a benefícios exclusivos no App e no Site

    • Chega de anúncios

    • Prioridade de compra em lançamentos

    • Mais recursos no app do Afinador

    • Atendimento Prioritário

    • Descontos nos produtos Cifra Club

    • Ajude a produzir mais conteúdo

    00:00 / 00:00

    Cifra Club Pro

    Aproveite o Cifra Club com benefícios exclusivos e sem anúncios
    Cifra Club Pro
    Aproveite o Cifra Club com benefícios exclusivos e sem anúncios
    OK