Cifra Club

Aprenda

From The Cradle To Enslave

Cradle of Filth

Cifra: Principal (violão e guitarra)
Já pensou em usar uma coleção de roupas do Cifra Club? Responda as perguntas abaixo e nos ajude nessa missão! →
tom: F
This is my second tab...most of the song sounds right. It is tuned
down to D ( D,A,D,G,B,E )

Keyboard and Bass Intro..

Main Riff x2
(10's not 1's and 0's)

|-----------------------------------------------------------------|
|-----------------------------------------------------------------|
|-7-6-7-10-7--15-14-15-14----15-14----15-14-----------------------|
|-------------------------15-------15-------15--------------------|
|-----------------------------------------------------------------|
|-----------------------------------------------------------------|

|-----------------------------------------------------------------|
|-----------------------------------------------------------------|
|-7-6-7-10-7--14-14-14-14-14-14-14-15-15-14-----------------------|
|-----------------------------------------------------------------|
|-----------------------------------------------------------------|
|-----------------------------------------------------------------|

Distorted Riff x 2

|-----------------------------------------------------------------|
|-----------------------------------------------------------------|
|-----------------------------------------------------------------|
|-0-0--0-3--3-3-2-1---0-0--0-4--4-4-3-2---------------------------|
|-0-0--0-3--3-3-2-1---0-0--0-4--4-4-3-2---------------------------|
|-0-0--0-3--3-3-2-1---0-0--0-4--4-4-3-2---------------------------|

|-----------------------------------------------------------------|
|-----------------------------------------------------------------|
|-----------------------------------------------------------------|
|-7-9-10------7-10-9----------------------------------------------|
|-7-9-10------7-10-9----------------------------------------------|
|-7-9-10--3p--7-10-9--6p------------------------------------------|

Back To Main Riff

|-----------------------------------------------------------------|
|-----------------------------------------------------------------|
|-7-6-7-10-7--15-14-15-14----15-14----15-14-----------------------|
|-------------------------15-------15-------15--------------------|
|-----------------------------------------------------------------|
|-----------------------------------------------------------------|

|-----------------------------------------------------------------|
|-----------------------------------------------------------------|
|-7-6-7-10-7--14-14-14-14-14-14-14-15-15-14-----------------------|
|-----------------------------------------------------------------|
|-----------------------------------------------------------------|
|-----------------------------------------------------------------|

Keyboard Part...'The nature of the Beast...'
Repeat 3 times

|-----------------------------------------------------------------|
|-----------------------------------------------------------------|
|-----------------------------------------------------------------|
|---10-10-10--6-6-6-6-6-6-6-6-6-6--10-10-10--6-6-6-6-6-6-6-6------|
|-\-10-10-10--6-6-6-6-6-6-6-6-6-6--10-10-10--6-6-6-6-6-6-6-6------|
|-\-10-10-10--6-6-6-6-6-6-6-6-6-6--10-10-10--6-6-6-6-6-6-6-6------|

|-----------------------------------------------------------------|
|-----------------------------------------------------------------|
|-----------------------------------------------------------------|
|-9-9-9-9-9-9-9-9-9-9---------------------------------------------|
|-9-9-9-9-9-9-9-9-9-9---------------------------------------------|
|-9-9-9-9-9-9-9-9-9-9---------------------------------------------|

|-----------------------------------------------------------------|
|-----------------------------------------------------------------|
|-----------------------------------------------------------------|
|-10-10-10--6-6-6-6-6-6-6-6-6-6--10-10-10--9-9-9--12-12-12--------|
|-10-10-10--6-6-6-6-6-6-6-6-6-6--10-10-10--9-9-9--12-12-12--------|
|-10-10-10--6-6-6-6-6-6-6-6-6-6--10-10-10--9-9-9--12-12-12--------|

Lead Riff Played after the above riff

|---------------------------------9-12-12-9--9-12-12p-------------|
|---9-9--9-10-9----9-9-8-8----9-9---------------------------------|
|-6--------------6----------6-------------------------------------|
|-----------------------------------------------------------------|
|-----------------------------------------------------------------|
|-----------------------------------------------------------------|

Final Riff repeat until fade out into keyboard part

|-----------------------------------------------------------------|
|-----------------------------------------------------------------|
|-7-6-7-10-7--15-14-15-14----15-14----15-14-----------------------|
|-------------------------15-------15-------15--------------------|
|-----------------------------------------------------------------|
|-----------------------------------------------------------------|

|-----------------------------------------------------------------|
|-----------------------------------------------------------------|
|-7-6-7-10-7--14-14-14-14-14-14-14-15-15-14-----------------------|
|-----------------------------------------------------------------|
|-----------------------------------------------------------------|
|-----------------------------------------------------------------|
Composição de Cradle of Filth
Colaboração e revisão:
  • Jefferson hita
9.161 exibições
    • ½ Tom
    • A
    • Bb
    • B
    • C
    • Db
    • D
    • Eb
    • E
    • F
    • F#
    • G
    • Ab
  • Adicionar à lista

    0 comentários

    Ver todos os comentários

    Conseguiu tocar?

    0 Tocaram 0 Ainda não

    Grave um vídeo tocando From The Cradle To Enslave e nos envie!

    00:00 / 00:00
    Outros vídeos desta música
    Repetir Qualidade Automático
    Outros vídeos desta música
    00:00 / 00:00
    Automático

    Cifra Club Pro

    Aproveite o Cifra Club com benefícios exclusivos e sem anúncios
    Cifra Club Pro
    Aproveite o Cifra Club com benefícios exclusivos e sem anúncios
    OK