Cifra Club

Hallowed Be Thy Name

Cradle of Filth

Cifra: Principal (violão e guitarra)
tom: A
(bom galera esse comecinho usem so essa intro)

|--------------------------------------------|
|--------------------------------------------|
|-11-9-7-676-4-6-----------------------------|
|--------------------------------------------|
|--------------------------------------------|
|--------------------------------------------|


I'm waiting in my cold cell, when the bell begins to chime;
Reflecting on my past life, and it doesn't have much time;
'Cause at 5 o'clock, they take me to the Gallows pole;
The sands of time, for me are running low...

Motha Fuckers!

(daqui ja entra esse solinho, ouça a musica pra saber o tempo entre os solos)

|----------------------------------------------------------------|
|----------------------------------------------------------------|
|-14/16/14-12-11/12/11-9-11----14/16/14-12-11/12/11-9-7----------|
|----------------------------------------------------------------|
|----------------------------------------------------------------|
|----------------------------------------------------------------|

(quando termina essa parte ele fica arrastando pra frente e pra tras
 pra dar aquele efeito no final a partir da 12ª casa)

|--------------------------------------------|
|--------------------------------------------|
|-9-11-9-11-9-11-9-11-9-11-9-11-9-11-9-11-9--|
|--------------------------------------------|
|--------------------------------------------|
|--------------------------------------------|

  Riff 1
|--------------------------------------------|
|--------------------------------------------|
|--------------------------------------------|
|--------------------------------------------|4x
|-7-9-7-9-7-9-10-7-9-7-9-5-------------------|
|--------------------------------------------|

(nao sei o nome das notas entao criei um codigozinhu blz?)

|-------|-------|-------|-------|--------|
|---1---|-------|-------|-------|--------|
|-------|-------|---2---|-------|--------|  = W
|-------|-------|---3---|-------|--------|
|-------|-------|-------|-------|--------|
|-------|-------|-------|-------|--------|
|---1---|-------|-------|-------|--------|
|-------|-------|---2---|-------|--------|
|-------|-------|---3---|-------|--------|  = X
|-------|-------|-------|-------|--------|
|-------|-------|-------|-------|--------|
|-------|-------|-------|-------|--------|

|-------|-------|-------|-------|--------|
|-------|-------|----1--|-------|--------|
|-------|-------|-------|-------|----2---|
|-------|-------|-------|-------|----3---|  = Y
|-------|-------|-------|-------|--------|
|-------|-------|-------|-------|--------|
|-------|-------|-------|-------|--------|
|---1---|-------|-------|-------|--------|
|-------|-------|---2---|-------|--------|  = Z 
|-------|-------|---3---|-------|--------|
|-------|-------|-------|-------|--------|
|-------|-------|-------|-------|--------|

(W)                                               (X)(Y)
 When the priest comes to read me the last rights;
                                                   (X)(Z)
 I take a look through the bars at the last sights;
                                     (X)  (W)(Y)(Z) Riff 2
 Of a world that has gone very wrong for me...

(no fim esse riff)
  Riff 2
|--------------------------------------|
|--------------------------------------|
|--------------------------------------|
|--------------------------------------|
|-9-9-11-12-11-9-----------------------|
|--------------------------------------|

(W)                                         (X)(Y)
Could it be that there's some sort of error?
                                    (X)(Z)
Hard to stop the surmounting terror;
                               (X)   (W)(Y)(Z) Riff 2
Is it really the end or some crazy dream?

 (W) 
Somebody please tell me that I'm dreaming;
 (Y) 
It's not easy to stop from screaming;
 (Z)                           (W)(Y)(Z) Riff 2
Words escape me when I try to speak...

 (W)
Tears, they flow; but why am I crying?
 (Y)
After all, I'm not afraid of dying;
 (Z)                                (W)(Y)(Z) Riff 2    
Do not beleive that there never is an end...


Riff 1



(ai entra esse outro riff)

Riff 3

|--------------------------------------------|
|--------------------------------------------|
|--------------------------------------------|
|--------9--------------9-------------9------|
|-7-9-10----10-9-7-9-10---10-9-7-9-10---10-9-|
|--------------------------------------------|

|--------------------------------------------|
|--------------------------------------------|
|--------------------------------------------|
|-------10-------------9--------------9------|
|7-9-10----10-9-7-9-10----10-9-7-9-10--------|
|--------------------------------------------|

Riff 4

|--------------------------------------------|
|--------------------------------------------|
|--------------------------------------------|
|--------------------------------------------|
|-10-9-7--10-9-7-----------------------------|
|--------------------------------------------|

 (W)
As the guards bring me out to the courtyard;
 (Y)
Somebody crys from a cell, "God be with you!"
 (Z)                                (X) (W)(Y)(Z) Riff 4
If there's a god then why does he let me die?

 (W)
As I walk, all my life drifts before me;
 (Y)
And though the end is near, I'm not sorry;
 (Z)                               Riff 4
Catch my soul, it's willing to fly away...

 (W)
Mark my words, believe my soul lives on;
 (Y)
Don't worry, now that I have gone;
 (Z)                              Riff 4
I've gone beyond to see the truth...

 (W)
So when you know that your time is close at hand;
 (Y)
Maybe then you'll begin to understand;
 (Z)                                   Riff 4
Life down there is just a strange illusion...

FICO DEVENDO O SOLO A VOCES GALERA, SE QUISEREM SABER O RESTO DA MUSICA
E SO APRENDER OS RIFFS QUE NO FINAL ELE TOCA A MAIORIA DELES ;)

Hallowed Be Thy Name (x4)
00:00 / 00:00
Outros vídeos desta música
Repetir
Outros vídeos desta música
Composição de Iron Maiden / Steve Harris
Colaboração e revisão:
  • Alexandre Magalhães
11.473 exibições
    • ½ Tom
    • A
    • Bb
    • B
    • C
    • Db
    • D
    • Eb
    • E
    • F
    • F#
    • G
    • Ab
  • Adicionar à lista

    0 comentários

    Ver todos os comentários

    Conseguiu tocar?

    0 Tocaram 0 Ainda não

    Grave um vídeo tocando Hallowed Be Thy Name e nos envie!

    Entre para oCifra Club PRO

    Tenha acesso a benefícios exclusivos no App e no Site

    • Chega de anúncios

    • Prioridade de compra em lançamentos

    • Mais recursos no app do Afinador

    • Atendimento Prioritário

    • Descontos nos produtos Cifra Club

    • Ajude a produzir mais conteúdo

    00:00 / 00:00

    Cifra Club Pro

    Aproveite o Cifra Club com benefícios exclusivos e sem anúncios
    Cifra Club Pro
    Aproveite o Cifra Club com benefícios exclusivos e sem anúncios
    OK