Cifra Club

To Eve The Art Of Witchcraft

Cradle of Filth

Cifra: Principal (violão e guitarra)
tom: F#
Riff 1 

x 1 

----------- 
----------- 
----------- 
-6-2-2-2-2- 
-6-2-2-2-2- 
-4-0-0-0-0- 

x 2 

----------------------------------------------------------------- 
----------------------------------------------------------------- 
----------------------------------------------------------------- 
-3-3-3-3-3-3-6-6-2-2-2-2-2-2-6-6-3-3-3-3-3-3-6-6-2-2-2-2-2-2-2-2- 
-3-3-3-3-3-3-6-6-2-2-2-2-2-2-6-6-3-3-3-3-3-3-6-6-2-2-2-2-2-2-2-2- 
-1-1-1-1-1-1-4-4-0-0-0-0-0-0-4-4-1-1-1-1-1-1-4-4-0-0-0-0-0-0-0-0- 

Riff 2 

x 2 

--------------------------------------------- 
--------------------------------------------- 
--------------------------------------------- 
-3-3-3---6---2-2-2---6---3-3-3---6---2-2-2-2- 
-3-3-3---6---2-2-2---6---3-3-3---6---2-2-2-2- 
-1-1-1---4---0-0-0---4---1-1-1---4---0-0-0-0- 


Riff 3 

x 8 

--------------- 
--------------- 
--------------- 
-3-3-3-3-3-3-3- 
-3-3-3-3-3-3-3- 
-1-0-1-0-1-0-1- 

Riff 4 

x 1 

------ 
------ 
------ 
-14\7- 
------ 
------ 
  
x 2 

-------------------- 
-------------------- 
-7---10--12---13-14- 
-7---10--12---13-14- 
-5---8---10---11-12- 
-------------------- 

Riff 5 

x 1 

--- 
--- 
--- 
-2- 
-2- 
-0- 

x 4 

------------------------------------- 
------------------------------------- 
------------------------------------- 
-------2---1-0----------------------- 
-----2-----------2---3-2-0----------- 
-0-------------------------4-1-1-1-1- 
                             ^ ^ ^ ^ 

Riff 6 

x 4 

----------------------------------------- 
----------------------------------------- 
----------------------------------------- 
-2-----------6-2-2-2-3-----------6-3-3-3- 
-2---2h3p2---6-2-2-2-3---2h3p2---6-3-3-3- 
-0-----------4-0-0-0-1-----------4-1-1-1- 
             ^ ^ ^ ^             ^ ^ ^ ^ 

** Riff 1 ** 

** Riff 2 ** 

** Riff 3 ** 

Riff 7 

x 8 

------------------ 
------------------ 
------------------ 
-----9------------ 
-7-7-----7-10-9-8- 
------------------ 

x 1 

----------------------------------------- 
----------------------------------------- 
----------------------------------------- 
-7-------------------5------------------- 
-7-------------------5------------------- 
-5-------------------3------------------- 


Riff 9 - Solo 

------------------------------------------------------------| 
-5---5---------------------5-4---4------5-4---------------| 
---------7-5-4-5--5--4h5h7-----7------------7-5-7-5-4-5---| 
----------------------------------------------------------7-| 
------------------------------------------------------------| 
------------------------------------------------------------| 

----------------------------------------------------------| 
----------------------------------------------------------| 
-----------------------------5--5s7s5-5-----------5-4---4-| 
---4h5h7p5p4-------4h5h7p5p4----------------4h5h7-----7---| 
-7-----------7---7------------------------7---------------| 
----------------------------------------------------------| 

  Riff 8: "Oh, the fevered need for her..." 
 |-----------------------|---|-----------------------|---| 
 |-----------------------|---|-----------------------|---| 
 |-----------------------|---|-----------------------|---| 
 |-9--x-x-9--x-x-9-x-9-9-|-%-|-5--x-x-5--x-x-5-x-5-5-|-%-| 
 |-7--x-x-7--x-x-7-x-7-7-|---|-3--x-x-3--x-x-3-x-3-3-|---| 
 |-7--x-x-7--x-x-7-x-7-7-|---|-3--x-x-3--x-x-3-x-3-3-|---| 

 
00:00 / 00:00
Outros vídeos desta música
Repetir
Outros vídeos desta música
Composição de Cradle of Filth / Dani Dark
Colaboração e revisão:
  • Bruno
1.985 exibições
    • ½ Tom
    • A
    • Bb
    • B
    • C
    • Db
    • D
    • Eb
    • E
    • F
    • F#
    • G
    • Ab
  • Adicionar à lista

    0 comentários

    Ver todos os comentários

    Conseguiu tocar?

    0 Tocaram 0 Ainda não

    Grave um vídeo tocando To Eve The Art Of Witchcraft e nos envie!

    Entre para oCifra Club PRO

    Tenha acesso a benefícios exclusivos no App e no Site

    • Chega de anúncios

    • Prioridade de compra em lançamentos

    • Mais recursos no app do Afinador

    • Atendimento Prioritário

    • Descontos nos produtos Cifra Club

    • Ajude a produzir mais conteúdo

    00:00 / 00:00

    Cifra Club Pro

    Aproveite o Cifra Club com benefícios exclusivos e sem anúncios
    Cifra Club Pro
    Aproveite o Cifra Club com benefícios exclusivos e sem anúncios
    OK