Cifra Club

Sunshine Of Your Love (studio Version Completa)

Cream

Cifra: Principal (violão e guitarra)
tom: C
E|---------------------------------|
B|---------------------------------| (x2)
G|--12-12-10-12--------------------|
D|--------------12-11-10----9------|
A|-----------------------10----10--|
E|---------------------------------|

E|---------------------------------|
B|---------------------------------| (x6)
G|---------------------------------|
D|-7-7--5--7------------3----------|
A|-5-5--3--5--------/5-----5-------|
E|------------5-4-3----------------|

E|---------------------------------|
B|---------------------------------| (x2)
G|-7-7--5--7------------3----------|
D|-5-5--3--5--------/5-----5-------|
A|------------5-4-3----------------|
E|---------------------------------|

E|---------------------------------|
B|---------------------------------| (x2)
G|---------------------------------|
D|-7-7--5--7------------3----------|
A|-5-5--3--5--------/5-----5-------|
E|------------5-4-3----------------|

E|---------------|      |-----------------------------------|
B|---------------| (x3) |-----------------------------------|
G|---------------|      |-----------------------------------|
D|----------5----|      |-----------------------------------|
A|-7---7-7--3--5-|      |-7--7-7--7-7--7-7--7-7--7-7--3-4-5-|
E|-5---5-5-----3-|      |-5--5-5--5-5--5-5--5-5--5-5--------|

E|---------------------------------|
B|---------------------------------| (x5)
G|---------------------------------|
D|-7-7--5--7------------3----------|
A|-5-5--3--5--------/5-----5-------|
E|------------5-4-3----------------|

E|---------------------------------|
B|---------------------------------| (x2)
G|-7-7--5--7------------3----------|
D|-5-5--3--5--------/5-----5-------|
A|------------5-4-3----------------|
E|---------------------------------|

E|---------------------------------|
B|---------------------------------| (x2)
G|---------------------------------|
D|-7-7--5--7------------3----------|
A|-5-5--3--5--------/5-----5-------|
E|------------5-4-3----------------|

E|---------------|      |-----------------------------------|
B|---------------| (x3) |-----------------------------------|
G|---------------|      |-----------------------------------|
D|----------5----|      |-----------------------------------|
A|-7---7-7--3--5-|      |-7--7-7--7-7--7-7--7-7--7-7--3-4-5-|
E|-5---5-5-----3-|      |-5--5-5--5-5--5-5--5-5--5-5--------|

(Toque isto enquanto outro guitarrista toca o solo)

E|---------------------------------|
B|---------------------------------| (x4)
G|---------------------------------|
D|-7-7--5--7------------3----------|
A|-5-5--3--5--------/5-----5-------|
E|------------5-4-3----------------|

E|---------------------------------|
B|---------------------------------| (x2)
G|-7-7--5--7------------3----------|
D|-5-5--3--5--------/5-----5-------|
A|------------5-4-3----------------|
E|---------------------------------|

E|---------------------------------|
B|---------------------------------| (x2)
G|---------------------------------|
D|-7-7--5--7------------3----------|
A|-5-5--3--5--------/5-----5-------|
E|------------5-4-3----------------|

E|---------------|      |--------------------------------------|
B|---------------| (x3) |--------------------------------------|
G|---------------|      |--------------------------------------|
D|----------5----|      |--------------------------------------|
A|-7---7-7--3--5-|      |-7--7-7--7-7--7-7--7-7--7-7--7-7--7-7-|
E|-5---5-5-----3-|      |-5--5-5--5-5--5-5--5-5--5-5--5-5--5-5-|

E|---------------------------------|
B|---------------------------------| (x6)
G|---------------------------------|
D|-7-7--5--7------------3----------|
A|-5-5--3--5--------/5-----5-------|
E|------------5-4-3----------------|

E|---------------------------------|
B|---------------------------------| (x2)
G|-7-7--5--7------------3----------|
D|-5-5--3--5--------/5-----5-------|
A|------------5-4-3----------------|
E|---------------------------------|

E|---------------------------------|
B|---------------------------------| (x2)
G|---------------------------------|
D|-7-7--5--7------------3----------|
A|-5-5--3--5--------/5-----5-------|
E|------------5-4-3----------------|

E|---------------|      |-----------------------------------------|
B|---------------| (x3) |-----------------------------------------|
G|---------------|      |-----------------------------------------|
D|----------5----|      |-----------------------------------------|
A|-7---7-7--3--5-|      |-7--7-7--7-7--7-7--7-7--7-7--7-7--7-7-...|
E|-5---5-5-----3-|      |-5--5-5--5-5--5-5--5-5--5-5--5-5--5-5-...| (Aqui, tocar até o fim da música.)

Composição de Eric Clapton, Pete Brown & Jack Bruce.
Colaboração e revisão:
  • Lucas D'Marco
1.038 exibições
    • ½ Tom
    • A
    • Bb
    • B
    • C
    • Db
    • D
    • Eb
    • E
    • F
    • F#
    • G
    • Ab
  • Adicionar à lista

    0 comentários

    Ver todos os comentários

    Conseguiu tocar?

    0 Tocaram 0 Ainda não

    Grave um vídeo tocando Sunshine Of Your Love (studio Version Completa) e nos envie!

    00:00 / 00:00
    Outros vídeos desta música
    Repetir Qualidade Automático
    Outros vídeos desta música
    00:00 / 00:00
    Automático

    Cifra Club Pro

    Aproveite o Cifra Club com benefícios exclusivos e sem anúncios
    Cifra Club Pro
    Aproveite o Cifra Club com benefícios exclusivos e sem anúncios
    OK