Cifra Club

Sunshine Of Your Love

Cream

Cifra: Principal (violão e guitarra)
tom: G
obs: ~ : vibrato

Riff # 1        2 vezes
E|--------------------------------------    ---------------------------------------
B|--------------------------------------    ---------------------------------------
G|--------------------------------------    ---11-11--9--11-------------12-10------
D|----12-12-10-12-----------------------    ----x-x---x--x--------------12----12---
A|-----------------12-11-10-----8~------    ---12-12-10--12--12-11-10--------------
E|---------------------------10----10~--    ---10-10--8--10------------------------
Este RIFF aparece várias vezes na música , é so ouvir e tentar encaixá-lo

VERSE 1
D            C    D
It's getting near dawn
     D            C     D
When lights close their tired eyes
     D       C    D
I'll soon be with you my love
D        C  D
give you my dawn's surprise
     G       F   G
I'll be with you darlin', soon
     G       F   G
I'll be with you when the stars start falling   D   C  D
Chorus
A             C     G     A
I've been waiting so long
           C      G
To be where I'm goin'
A         C       G     A      D   C  D
In the sunshine of your love

Solo:

E|------------------------------------------------------------------------------
B|------------------------12----------------------------------------------------
G|--b12--b12-------12-b12----b12---12--b12----------b9p7--9--7--b9--7-----------
D|------------------------------------------------------------------------------
A|------------------------------------------------------------------------------
E|------------------------------------------------------------------------------

E|------------------------------------------------------------------------------
B|-------------9----9-----------------------------------------------------------
G|-------7h9--b9---b9----7h9p7-----------b10---b10---b10------------------------
D|--7h9-------------------------------------------------------------------------
A|------------------------------------------------------------------------------
E|------------------------------------------------------------------------------

E|------------------------------------------------------------------------------
B|------------------------------------------------------------------------------
G|--b10----b10----------10--7--b9-----7---------b9------------7h9---b9----------
D|---------------------------------9--------------------7h9---------------9-----
A|------------------------------------------------------------------------------
E|------------------------------------------------------------------------------

E|------------------------------------------------------------------------------
B|----------------------------------------13------------------------------------
G|--7hb9---b9--b9--7--9---7h9--7----------14-----12--10--11------10-------------
D|-----------------------------------------------------------12------12p10---12-
A|------------------------------------------------------------------------------
E|------------------------------------------------------------------------------

E|--------------10--------------------------------------------------------------
B|-------------------------------------------13---------------------------------
G|--10h11------------b10-------10--b12-----------b12--12--10------12---12/14----
D|-------------------------12---------------------------------------------------
A|------------------------------------------------------------------------------
E|------------------------------------------------------------------------------

E|-------------------------------10---------------------------------------------
B|--13-------------------10--10-------------------------------------------------
G|------14/12--10---b12--------------b12--10------b10---------------------------
D|--------------------------------------------12--------12----------------------
A|-----------------------------------------------------------12-----------------
E|------------------------------------------------------------------------------

E|------------------------------------------------------------------------------
B|---------------------------10--12--------------13------13--13h15--13----------
G|--------------10----10-----10--12--12/14-----------14-----------------14/12---
D|--10----10----10h12-10h12-----------------------------------------------------
A|--10h12-10h12-----------------------------------------------------------------
E|------------------------------------------------------------------------------

E|----------------------------------------------------13------------------------
B|-----------------------------13------b15--13--15----13---15p13----------------
G|--b10----12p10----12/14----------14-----------------------------14/12--b10----
D|------------------------------------------------------------------------------
A|------------------------------------------------------------------------------
E|------------------------------------------------------------------------------

E|------------------------------------------------------------------------------
B|---------------------------13---13----13--------------------------------------
G|----------12--10---12/14--------14----14---14/12--b10-------------------------
D|--12--12------------------------------------------------12p10------10h12------
A|---------------------------------------------------------------12-------------
E|------------------------------------------------------------------------------

    D        C  D
I'm with you my love
    D         C   D
The light shining through on you
         D        C  D
Yes, I'm with you my love
         D       C   D
It's the morning and just we two

Riff # 2
E|------------------------------
B|------------------------------
G|------------------------------
D|-----------------3------------
A|-------------5-4-3----1~------
E|-----3-3-1-3--------3---3-----

     G         F   G
I'll stay with you darlin', now
     G         F   G                             D   C  D
I'll stay with you till my seas are all dried up

Chorus

Guitar Solo

3rd Verse
    D        C  D
I'm with you my love
    D         C   D
The light shining through on you  hoo.
         D        C  D
Yes, I'm with you my love
         D       C   D
It's the morning and just we two
     G         F   G
I'll stay with you darlin' now
     G         F   G                             D  C  D
I'll stay with you till my seas are all dried up.
Chorus
Fade

OBS:: Toda vez que tocar as notas G  F  G, fazer o RIFF. # 2
Composição de Eric Clapton / Jack Bruce / Pete Brown
262.268 exibições
    • ½ Tom
    • A
    • Bb
    • B
    • C
    • Db
    • D
    • Eb
    • E
    • F
    • F#
    • G
    • Ab
  • Adicionar à lista

    0 comentários

    Ver todos os comentários

    Conseguiu tocar?

    88 Tocaram 5 Ainda não

    Grave um vídeo tocando Sunshine Of Your Love e nos envie!

    00:00 / 00:00
    Outros vídeos desta música
    Repetir Qualidade Automático
    Outros vídeos desta música
    00:00 / 00:00
    Automático

    Cifra Club Pro

    Aproveite o Cifra Club com benefícios exclusivos e sem anúncios
    Cifra Club Pro
    Aproveite o Cifra Club com benefícios exclusivos e sem anúncios
    OK