Cifra Club

Sunshine Of Your Love

Cream

Tab de baixo: Principal
exibições 42.730
Introdução 

Parte 01 de 02 

G|--------------------------------------------|
D|-12-12-10-12--------------------------------|
A|-------------12-11-10----8------------------|
E|----------------------10---10---------------|

G|--------------------------------------------|
D|-12-12-10-12--------------------------------|
A|-------------12-11-10----8------------------|
E|----------------------10---10-8-------------|

Parte 02 de 02 ( tocar 2x )

G|--------------------------------------------|
D|---------7-6-5---3--------------------------|
A|-5-5-3-5-------5---5------------------------|
E|--------------------------------------------|

Primeira parte

It's getting near dawn...

parte 01 de 03

G|--------------------------------------------|
D|---------/7-6-5---3-----------/7-6-5---3----|
A|-5-5-3-5--------5---5-5-5-3-5--------5---5-3|
E|--------------------------------------------|

G|--------------------------------------------|
D|---------/7-6-5---3-------------/7-6-5---3--|
A|-5-5-3-5--------5---5-3-5-5-3-5--------5---5|
E|--------------------------------------------|

Parte 02 de 03

G|--------------------------------------------|
D|-5-5-3-5--------------5-5-3-5---------------|
A|---------5-4-3---1------------5-4-3---1-----|
E|---------------3---3----------------3---3---|

Parte 03 de 03

G|--------------------------------------------|
D|---------/7-6-5---3-------------/7-6-5---3--|
A|-5-5-3-5--------5---5-3-5-5-3-5--------5---5|
E|--------------------------------------------|

Segunda parte 

I've been waiting so long...

Parte 01 de 02

G|--------------------------------------------|
D|--------------------------------------------|
A|-------3----------3----------3--------------|
E|-5-5-5---3--5-5-5---3--5-5-5---3------------|

G|--------------------------------------------|
D|--------------------------------------------|
A|--------------------------------3-4---------|
E|-5--5-5--5-5--5-5--5-5-5-5--5-5-------------|

Introdução 2

Parte 01 de 02 

G|--------------------------------------------|
D|---------/7-6-5---3-------------------------|
A|-5-5-3-5--------5---5-----------------------|
E|--------------------------------------------|

Terceira parte

I'm with you, my love...

Parte 01 de 03

G|--------------------------------------------|
D|---------/7-6-5---3-----------/7-6-5---3----|
A|-5-5-3-5--------5---5-5-5-3-5--------5---5-3|
E|--------------------------------------------|

G|--------------------------------------------|
D|---------/7-6-5---3-------------/7-6-5---3--|
A|-5-5-3-5--------5---5-3-5-5-3-5--------5---5|
E|--------------------------------------------|

Parte 02 de 03

G|--------------------------------------------|
D|-5-5-3-5--------------5-5-3-5---------------|
A|---------5-4-3---1------------5-4-3---1-----|
E|---------------3---3----------------3---3---|

Parte 03 de 03

G|--------------------------------------------|
D|---------/7-6-5---3-------------/7-6-5---3--|
A|-5-5-3-5--------5---5-3-5-5-3-5--------5---5|
E|--------------------------------------------|

Quarta parte

I've been waiting so long...

Parte 01 de 02

G|--------------------------------------------|
D|--------------------------------------------|
A|-------3----------3----------3--------------|
E|-5-5-5---3--5-5-5---3--5-5-5---3------------|

G|--------------------------------------------|
D|--------------------------------------------|
A|--------------------------------3-4---------|
E|-5--5-5--5-5--5-5--5-5-5-5--5-5-------------|

Solo de Guitarra

Parte 01 de 04

G|--------------------------------------------|
D|---------/7-6-5---3-----------/7-6-5---3----|
A|-5-5-3-5--------5---5-5-5-3-5--------5---5-3|
E|--------------------------------------------|

G|--------------------------------------------|
D|---------/7-6-5---3-------------/7-6-5---3--|
A|-5-5-3-5--------5---5-3-5-5-3-5--------5---5|
E|--------------------------------------------|

Parte 02 de 04

G|--------------------------------------------|
D|-------------10/12-11-10----8---------------|
A|-10-10-8--10-------------10---10--10-10-8-10|
E|--------------------------------------------|

G|--------------------------------------------|
D|--------------------------------------------|
A|-5-4-3---1----------------------------------|
E|-------3---3--------------------------------|

Parte 03 de 04

G|--------------------------------------------|
D|---------/7-6-5---3-------------/7-6-5---3--|
A|-5-5-3-5--------5---5-3-5-5-3-5--------5---5|
E|--------------------------------------------|

Parte 04 de 04

G|--------------------------------------------|
D|--------------------------------------------|
A|-------3----------3----------3--------------|
E|-5-5-5---3--5-5-5---3--5-5-5---3------------|

G|--------------------------------------------|
D|--------------------------------------------|
A|--------------------------------3-4---------|
E|-5--5-5--5-5--5-5--5-5-5-5--5-5-------------|

Introdução 03

Parte 01 de 01

G|--------------------------------------------|
D|---------/7-6-5---3-----------/7-6-5---3----|
A|-5-5-3-5--------5---5-5-5-3-5--------5---5-3|
E|--------------------------------------------|


Quinta parte

I'm with you, my love...

Parte 01 de 03

G|--------------------------------------------|
D|---------/7-6-5---3-----------/7-6-5---3----|
A|-5-5-3-5--------5---5-5-5-3-5--------5---5-3|
E|--------------------------------------------|

G|--------------------------------------------|
D|---------/7-6-5---3-------------/7-6-5---3--|
A|-5-5-3-5--------5---5-3-5-5-3-5--------5---5|
E|--------------------------------------------|

Parte 02 de 03

G|--------------------------------------------|
D|-5-5-3-5--------------5-5-3-5---------------|
A|---------5-4-3---1------------5-4-3---1-----|
E|---------------3---3----------------3---3---|

Parte 03 de 03

G|--------------------------------------------|
D|---------/7-6-5---3-------------/7-6-5---3--|
A|-5-5-3-5--------5---5-3-5-5-3-5--------5---5|
E|--------------------------------------------|

Sexta parte - Final

I've been waiting so long...

Parte 01 de 02 ( tocar 2x )

G|--------------------------------------------|
D|--------------------------------------------|
A|-------3----------3----------3--------------|
E|-5-5-5---3--5-5-5---3--5-5-5---3------------|

G|--------------------------------------------|
D|--------------------------------------------|
A|-------3------------3-----------------------|
E|-5-5-5---3--5-5-5-5---3---------------------|

Parte 02 de 02

G|--------------------------------------------|
D|--------------------------------------------|
A|--------------------------------------------|
E|-5--5-5--5-5--5-5--5-5--5-5--5-5--5-5-------|

G|--------------------------------------------|
D|--------------------------------------------|
A|--------------------------------------------|
E|-5-5-5-5--5-5-5-5--5-5-5-5--5-5-5-5---------|

G|--------------------------------------------|
D|--------------------------------------------|
A|-5/12---------------------------------------|
E|--------------------------------------------|
Composição: Eric Clapton / Jack Bruce / Pete BrownColaboração e revisão:
  • Ricardo Reis
  • Filipe Marks

0 comentários

    mostrar mais comentários

    Conseguiu tocar?

    27tocaram0ainda não

    Grave um vídeo tocando Sunshine Of Your Love e mande pra gente!

    00:00 / 00:00
    outros vídeos desta música
    repetirqualidadeautomática
    Outro vídeos desta música
      00:00 / 00:00
      automática
      Capítulos
      • Tocando a música
      • Dicas Iniciais / Equipamentos
      • Introdução
      • Primeira Parte
      • Segunda Parte
      • Solo de Guitarra
      • Sexta Parte
      • Encerramento
      • Ficha Técnica
      OK