Cifra Club

My Sacrifice

Creed

Cifra: Guitarra
exibições 29.255
Tom: D
Afinação: D  A  D  A  D  D

[Introdução - Parte 1] Bm  G9  D
                       Bm  G9

   Bm
E|---------0--------------------------------|
B|-----------0------------------------------|
G|---4---------4----------------------------|
D|-----4---------4--------------------------|
A|-2-----2----------------------------------|
E|------------------------------------------|

      G9
E|--------------0---------------------------|
B|--------------0--------0------------------|
G|----------12-12-----12--------------------|
D|-------12--------12-----------------------|
A|-0--10------------------------------------|
E|------------------------------------------|

   D
E|-----0----0----0--------------------------|
B|-----0----0----0--------------------------|
G|-0-0-5\4--4/5--5--------------------------|
D|-0-0-0----0----0--------------------------|
A|-0-0-5\4--4/5--5--------------------------|
E|-0-0-0----0----0--------------------------|
   ↓ ↑ ↓    ↓    ↓ 

E|---0----0----0---0----0-------------------|
B|---0----0----0---0----0-------------------|
G|-0-5\4--4/5--5/9-9----9/10----------------|
D|-0-0----0----0---0----0-------------------|
A|-0-5\4--4/5--5/9-9----9/10----------------|
E|-0-0----0----0---0----0-------------------|
   ↑ ↓    ↓    ↓   ↑    ↓

      Bm
E|------------0-----------------------------|
B|--------------0---------------------------|
G|------0---------4-------------------------|
D|--------4---------4-----------------------|
A|-0--2-----2-------------------------------|
E|------------------------------------------|

      G9
E|--------------0---------------------------|
B|--------------0--------0------------------|
G|----------12-12-----12--------------------|
D|-------12--------12-----------------------|
A|-0--10------------------------------------|
E|------------------------------------------|


[Introdução - Parte 2] D  Bm  G5

   D
E|------------------------------------------|
B|------------------------------------------|
G|-5\4--4/5--5--5-5---4-4-5---5-5/7\5-------|
D|------------------------------------------|
A|-5\4--4/5--5--5-5---4-4-5---5-5/7\5-------|
E|------------------------------------------|
   ↓    ↓    ↓  ↓ ↑   ↑ ↓ ↑   ↑ ↓ 

E|------------------------------------------|
B|------------------------------------------|
G|-5\4--4/5--5--5-5---4-4-5---4-4-0---------|
D|------------------------------------------|
A|-5\4--4/5--5--5-5---4-4-5---4-4-0---------|
E|------------------------------------------|
   ↓    ↓    ↓  ↓ ↑   ↑ ↓ ↑   ↑ ↓ ↑

   Bm
E|------------------------------------------|
B|------------------------------------------|
G|-2--2-2-2--2-2--2-2--2-2/-----------------|
D|-4--4-4-4--4-4--4-4--4-4/-----------------|
A|-2--2-2-2--2-2--2-2--2-2/-----------------|
E|------------------------------------------|
   ↓  ↓ ↑ ↓  ↓ ↑  ↑ ↓  ↓ ↑

  G5
E|------------------------------------------|
B|------------------------------------------|
G|10-10-10--10-10-10--10-10--10-10--10-10-10|
D|12-12-12--12-12-12--12-12--12-12--12-12-12|
A|10-10-10--10-10-10--10-10--10-10--10-10-10|
E|------------------------------------------|
   ↓  ↑  ↓   ↓  ↑  ↓   ↓  ↑   ↑  ↓   ↓  ↑  ↓


[Primeira Parte]

    D
Hello, my friend
                  
We meet again
                
It's been a while
                   Bm
Where should we begin? 
              G5
Feels like forever
    D
Within my heart are memories
          
Of perfect love 
                  Bm
That you gave to me
     G5
I remember


[Primeiro Refrão]

   D5
E|------------------------------------------|
B|------------------------------------------|
G|-0----0----0--0-0---0-0-0-----------------|
D|-0----0----0--0-0---0-0-0-----------------|
A|-0----0----0--0-0---0-0-0-----------------|
E|-0----0----0--0-0---0-0-0-----------------|
   ↓    ↓    ↑  ↑ ↓   ↓ ↑ ↓

   A11/C#
E|------------------------------------------|
B|-0----0----0--0-0---0-0-0-----------------|
G|-0----0----0--0-0---0-0-0-----------------|
D|-7----7----7--7-7---7-7-7-----------------|
A|-4----4----4--4-4---4-4-4-----------------|
E|------------------------------------------|
   ↓    ↓    ↑  ↑ ↓   ↓ ↑ ↓

   Bm
E|------------------------------------------|
B|-0----0----0--0-0--0----------------------|
G|-2----2----2--2-2--2----------------------|
D|-4----4----4--4-4--4----------------------|
A|-2----2----2--2-2--2----------------------|
E|------------------------------------------|
   ↓    ↓    ↑  ↑ ↓  ↓

   G9
E|------------------------------------------|
B|------------------------------------------|
G|-0---0-0-0--0-0---------------------------|
D|-5---5-5-5--5-5---------------------------|
A|-5---5-5-5--5-5-5p3-0-3-3-3-5p3-----------|
E|-5---5-5-5--5-5-5p3-0-3-3-3-5p3-----------|
   ↓   ↓ ↑ ↓  ↓ ↑ 

              D5
When you are with me
      A11/C#
I'm free
     Bm
I'm careless
     G9
I believe
              D5
Above all the others
        A11/C#
We'll fly
             Bm
This brings tears
      G9
To my eyes
         
My sacrifice


[Interlúdio] D  Bm  G5

   D
E|------------------------------------------|
B|------------------------------------------|
G|-5\4--4/5--5--5-5---4-4-5---5-5/7\5-------|
D|------------------------------------------|
A|-5\4--4/5--5--5-5---4-4-5---5-5/7\5-------|
E|------------------------------------------|
   ↓    ↓    ↓  ↓ ↑   ↑ ↓ ↑   ↑ ↓ 

E|------------------------------------------|
B|------------------------------------------|
G|-5\4--4/5--5--5-5---4-4-5---4-4-0---------|
D|------------------------------------------|
A|-5\4--4/5--5--5-5---4-4-5---4-4-0---------|
E|------------------------------------------|
   ↓    ↓    ↓  ↓ ↑   ↑ ↓ ↑   ↑ ↓ ↑

   Bm
E|------------------------------------------|
B|------------------------------------------|
G|-2--2-2-2--2-2--2-2--2-2/-----------------|
D|-4--4-4-4--4-4--4-4--4-4/-----------------|
A|-2--2-2-2--2-2--2-2--2-2/-----------------|
E|------------------------------------------|
   ↓  ↓ ↑ ↓  ↓ ↑  ↑ ↓  ↓ ↑

  G5
E|------------------------------------------|
B|------------------------------------------|
G|10-10-10--10-10-10--10-10--10-10--10-10-10|
D|12-12-12--12-12-12--12-12--12-12--12-12-12|
A|10-10-10--10-10-10--10-10--10-10--10-10-10|
E|------------------------------------------|
   ↓  ↑  ↓   ↓  ↑  ↓   ↓  ↑   ↑  ↓   ↓  ↑  ↓


[Segunda Parte]

       D
We've seen our share

Of ups and downs

Oh, how quickly life
           Bm
Can turn around 
      G5
In an instant
    D
It feels so good to reunite

Within yourself 
                 Bm
And within your mind
             G5
Let's find peace there


[Segundo Refrão]

                    D5
Cause when you are with me
      A11/C#
I'm free
     Bm
I'm careless
     G9
I believe
              D5
Above all the others
        A11/C#
We'll fly
             Bm
This brings tears
      G9
To my eyes
         
My sacrifice


[Ponte]

  P.M          .           .           .
E|-----------------------------------------------------|
B|-----------------------------------------------------|
G|----9\7--7-7----7\5--5-5----5\4--4-4-----------------|
D|-----------------------------------------------------|
A|-0--9\7--7-7-0--7\5--5-5-0--5\4--4-4-0---------------|
E|-0-----------0-----------0-----------0---------------|

E|-----------------------------------------------------|
B|-----------------------------------------------------|
G|-x-2/4--4-4-5\4--4-7\5--5-5-5------------------------|
D|-x---------------------------------------------------|
A|-x-2/4--4-4-5\4--4-7\5--5-5-5------------------------|
E|-----------------------------------------------------|

I just want to say hello again
I just want to say hello again

  P.M             .         
E|-----------------------------------------------------|
B|-----------------------------------------------------|
G|----13-13-13-13----13-13-13-13-----------------------|
D|-------------------------------x-x-x-x-x-x-----------|
A|-0--13-13-13-13-0--13-13-13-13-x-x-x-x-x-x-----------|
E|-0--------------0--------------x-x-x-x-x-x-----------|

               P.M              .  .  .
E|-----------------------------------------------------|
B|---------------------------------------0-------------|
G|-13-13-13-13-----13-13-13-13-----------0-------------|
D|---------------------------------------0-------------|
A|-13-13-13-13--0--13-13-13-13--0--0--0--0-------------|
E|--------------0---------------0--0--0--0-------------|



[Terceiro Refrão]

   D
E|-0----0--0-0-5/7--5--4h5p4--0-------------|
B|-0----0--0-0-0----0--0------0-------------|
G|-0----0--0-0-0----0--0------0-------------|
D|-0----0--0-0----------------0-------------|
A|-0----0--0-0----------------0-------------|
E|-0----0--0-0----------------0-------------|
   ↓    ↓  ↓ ↑ ↓    ↓  ↓      ↓

   A11/C#
E|------------------------------------------|
B|-0--0-0-0---0-0-0-0---0-0-0---------------|
G|-0--0-0-0---0-0-0-0---0-0-0---------------|
D|-7--7-7-7---7-7-7-7---7-7-7---------------|
A|-4--4-4-4---4-4-4-4---4-4-4---------------|
E|------------------------------------------|
   ↓  ↓ ↑ ↓   ↑ ↓ ↑ ↓   ↑ ↓ ↑

   Bm
E|------------------------------------------|
B|-0----0-0----0------0---------------------|
G|-2----2-2-------4------4------------------|
D|-4----4-4--4------4------4----------------|
A|-2----2-2---------------------------------|
E|------------------------------------------|
   ↓    ↑ ↓

   G9
E|------------------------------------------|
B|-0--0-0-0--0-0-0----0-0-0-0--0------------|
G|-0--0-0-0--0-0-0----0-0-0-0--0------------|
D|-7--7-7-7--7-7-7h9--9-9-9-7--7------------|
A|-5--5-5-5--5-5-5----5-5-5-5--5------------|
E|-5--5-5-5--5-5-5----5-5-5-5--5------------|
   ↓  ↓ ↑ ↓  ↓ ↑ ↓    ↓ ↑ ↓ ↑  ↑

   D
E|-0----0--0-0-5/7-----7--------------------|
B|-0----0--0-0-0-------0--------------------|
G|-0----0--0-0-0-------0--------------------|
D|-0----0--0-0------0-----0-0---------------|
A|-0----0--0-0------0-----0-0---------------|
E|-0----0--0-0------0-----0-0---------------|
   ↓    ↓  ↓ ↑ ↓    ↓  ↓  ↓ ↑          

   A11/C#
E|------------------------------------------|
B|-0--0-0-0---0-0-0-0---0-0-0---------------|
G|-0--0-0-0---0-0-0-0---0-0-0---------------|
D|-7--7-7-7---7-7-7-7---7-7-7---------------|
A|-4--4-4-4---4-4-4-4---4-4-4---------------|
E|------------------------------------------|
   ↓  ↓ ↑ ↓   ↑ ↓ ↑ ↓   ↑ ↓ ↑

   Bm
E|------------------------------------------|
B|-0----0-0----0------0---------------------|
G|-2----2-2-------4------4------------------|
D|-4----4-4--4------4------4----------------|
A|-2----2-2---------------------------------|
E|------------------------------------------|
   ↓    ↑ ↓

   G9
E|------------------------------------------|
B|-0--0-0-0--0-0----------------------------|
G|-0--0-0-0--0-0----------------------------|
D|-7--7-7-7--7-7-x-x-x-x-x-x-x-x------------|
A|-5--5-5-5--5-5-x-x-x-x-x-x-x-x------------|
E|-5--5-5-5--5-5-x-x-x-x-x-x-x-x------------|
   ↓  ↓ ↑ ↓  ↓ ↑ ↓ ↑ ↓ ↑ ↓ ↑ ↓ ↑

                    D5
Cause when you are with me
      A11/C#
I'm free
     Bm
I'm careless
     G9
I believe
              D5
Above all the others
        A11/C#
We'll fly
             Bm
This brings tears
      G9
To my eyes
         
                    D5
Cause when you are with me
      A11/C#
I'm free
     Bm
I'm careless
     G9
I believe
              D5
Above all the others
        A11/C#
We'll fly
             Bm
This brings tears
      G9
To my eyes
         
My sacrifice


[Final]

My sacrifice
My sacrifice
(I just want to say hello again)
I just want to say hello again
My sacrifice
Acordes para:
    Composição: Günter Schulz / Mark Tremonti / Scott StappColaboração e revisão:
    • Vinícius Dias
    • Shailo Lautharte

    0 comentários

      mostrar mais comentários

      Conseguiu tocar?

      1tocaram1ainda não

      Grave um vídeo tocando My Sacrifice e mande pra gente!

      00:00 / 00:00
      outros vídeos desta música
      repetirqualidadeautomática
      Outro vídeos desta música
        00:00 / 00:00
        automática
        Capítulos
        • Tocando a música
        • Apresentação / Equipamentos
        • Afinação
        • Dicas Iniciais
        • Configuração do equipamento
        • Acordes Introdução
        • Tocando Introdução
        • Introdução: Parte 1
        • Introdução: Parte 2
        • Acordes Refrão
        • Tocando Primeira Parte - Refrão
        • Primeiro Refrão
        • Estrutura da música
        • Tocando Interlúdio - Ponte
        • Ponte - Parte 1 de 2
        • Ponte - Parte 2 de 2
        • Dicas Terceiro Refrão - Final
        • Tocando Terceiro Refrão - Final
        • Terceiro Refrão - Parte 1 de 2
        • Terceiro Refrão - Parte 2 de 2
        • Encerramento
        OK