Born On The Bayou

Creedence Clearwater Revival

Composição: John Fogerty
Tom: D
(intro)


    4/4     E7
E|----|-------0---------0----|--------0----------0-------||
B|----|----------3------3--3-|-(3)----3--3-------3--3----||
G|----|----1---------1-------|-----1----------1---------:||
D|----|-2--------------------|--------------------------:||
A|--2-|----------------------|---------------------------||
E|----|----------------------|---------------------------||


E7
Now, when I was just a little boy,
Standing to my Daddy's knee,
My poppa said, "Son, don't let the man get you
Do what he done to me."

E7
'Cause he'll get you,
'Cause he'll get you now, now.
And I can remember the fourth of July,
Running through the backwood, bare.
And I can still hear my old hound dog barking.

E7                           D A (Em) E7                      D  A (Em)
chasing down a hoodoo there,      Chasin' down a hodoo there

E7              D A (Em) E7              D A (Em)
Born on a bayou            Born on a bayou
E7                D   A    (Em) E7
Born on a bayou, Lord Lord.

(solo) E7 (14x)  D A E7 (3x) E7 (8x)


    4/4     E7
E|----|-------0---------0----|--------0----------0-------||
B|----|----------3------3--3-|-(3)----3--3-------3--3----||
G|----|----1---------1-------|-----1----------1---------:||
D|----|-2--------------------|--------------------------:||
A|--2-|----------------------|---------------------------||
E|----|----------------------|---------------------------||


E7
Wish I was back on the Bayou.
Rolling with some Cajun Queen.
Wishing I were a fast freight train,
Just a choogling on down to New Orleans.

E7
Born On The Bayou;
Born On The Bayou;
Born On The Bayou.

(solo 2) E7 (14x) D A E7 E7 (4x)


    4/4     E7
E|----|-------0---------0----|--------0----------0-------||
B|----|----------3------3--3-|-(3)----3--3-------3--3----||
G|----|----1---------1-------|-----1----------1---------:||
D|----|-2--------------------|--------------------------:||
A|--2-|----------------------|---------------------------||
E|----|----------------------|---------------------------||


E7
I can remember the fourth of July,
Running through the backwood bare.
And I can still hear my old hound dog barking,
E7                           D A (Em) E7                      D  A (Em)
chasing down a hoodoo there,      Chasin' down a hodoo there

E7              D A (Em) E7              D A (Em)
Born on a bayou            Born on a bayou, oh oh
E7                D   A    (Em) E7
Born on a bayou, all right! Do, do, do, do.


    4/4     E7
E|----|-------0---------0----|--------0----------0-------||
B|----|----------3------3--3-|-(3)----3--3-------3--3----||
G|----|----1---------1-------|-----1----------1---------:||
D|----|-2--------------------|--------------------------:||
A|--2-|----------------------|---------------------------||
E|----|----------------------|---------------------------||


passagem solo com acordes:
      -

E|----|-2\4--4--4-/2--|2----0--0---3-|-2\4-4--4-/2--|--5-4-2-4-----||
B|----|-3\5--5--5-/3--|3----0--0---2-|-3\5-5--5-/3--|--5-5-3-5-----||
G|----|-2\4--4--4-/2--|2----1--1---3-|-2\4-4--4-/2--|--4-4-2-4----:||
D|----|---------------|--------------|--------------|-------------:||
A|----|---------------|--------------|--------------|--------------||
E|----|---------------|--------------|--------------|--------------||


                                       {{{{{{{{  -    4x   -  }}}}}}}}


E|----|-2\4-4--4-/2---|2----0--0---4-||---2-2---0-0--|0--4--2--0----||
B|----|-3\5-5--5-/3---|3----0--0---5-||---3-3---2-2--|0--5--3--0----||
G|----|-2\4-4--4-/2---|2----1--1\--4-||---2-2---2-2--|1\-4--2--1---:||
D|----|---------------|--------------||--------------|-------------:||
A|----|---------------|--------------||--------------|--------------||
E|----|---------------|--------------||--------------|--------------||
Página 1 / 1

Letras e título
Acordes e artista

resetar configurações
variar acorde