Cifra Club

Aprenda

Dark Island City

Crime In Stereo

Cifra: Principal (violão e guitarra)
tom: A
Simple enough, tabbed out all the way through to save confusion.

e|-------------------------------------------------------------------|
B|*|
G|*|
D|-13-14----13-14-11----11-13-13-14----------------------13-14-------|
A|-------------------14----------------------------------------------|
E|-------------------------------------------------------------------|

e|-------------------------------------------------------------------|
B|-------------------------------------------------------------------|
G|-------------------------------------------------------------------|
D|*|
A|----------14----------14----------14--14-12-11---------------------|
E|-----------------------------------------------14------------------|

e|------------------------------------------------------------------------------------|
B|------------------------------------------------------------------------------------|
G|------16------16------16b(18)*|
D|-13h14---13h14---13h14-------------------------------------14-----------------------|
A|------------------------------------------------------------------------------------|
E|------------------------------------------------------------------------------------|

e|------------------------------------------------------------------------------------|
B|------------------------------------------------------------------------------------|
G|------16------16------16b(18)*|
D|-13h14---13h14---13h14-------------------------------------14-----------------------|
A|------------------------------------------------------------------------------------|
E|------------------------------------------------------------------------------------|
e|------------------------------------------------------------------------------------|
B|------------------------------------------------------------------------------------|
G|------16------16------16b(18)*|
D|-13h14---13h14---13h14-------------------------------------14-----------------------|
A|------------------------------------------------------------------------------------|
E|------------------------------------------------------------------------------------|

e|------------------------------------------------------------------------------------|
B|------------------------------------------------------------------------------------|
G|------16------16------16b(18)*|
D|-13h14---13h14---13h14-------------------------------------14-----------------------|
A|------------------------------------------------------------------------------------|
E|------------------------------------------------------------------------------------|

e|---------------------------------------|
B|---------------------------------------|
G|*|
D|------------14-------------------------|
A|---------------------------------------|
E|---------------------------------------|

I only have a single photograph of me and you. 
It's from last New Years at my place.
I look half drunk and half obscured by some crusty punk. 
You're all done up and already walking away.


e|----------------------------------------------------------|
B|----------------------------------------------------------|
G|-------12--------12b(14)-------12-------------------------|
D|----------------------------------------------------------|
A|-13-14------13-14--------13-14-----13-14-13-14-13-11-11~--|
E|----------------------------------------------------------|

e|----------------------------------------------------------|
B|----------------------------------------------------------|
G|-------12--------12b(14)-------12-------------------------|
D|----------------------------------------------------------|
A|-13-14------13-14--------13-14-----13-14-13-14-13-11-11~--|
E|----------------------------------------------------------|

e|----------------------------------------------------------|
B|----------------------------------------------------------|
G|-------12--------12b(14)-------12-------------------------|
D|----------------------------------------------------------|
A|-13-14------13-14--------13-14-----13-14-13-14-13-11-11~--|
E|----------------------------------------------------------|

e|-----------------------------------11-12-11-12-11---------|
B|--------------------------------------------------14-14~--|
G|-------12--------12b(14)-------12-------------------------|
D|----------------------------------------------------------|
A|-13-14------13-14--------13-14----------------------------|
E|----------------------------------------------------------|

e|------------------------------------------------------------------------------------|
B|------------------------------------------------------------------------------------|
G|------16------16------16b(18)*|
D|-13h14---13h14---13h14-------------------------------------14-----------------------|
A|------------------------------------------------------------------------------------|
E|------------------------------------------------------------------------------------|

e|------------------------------------------------------------------------------------|
B|------------------------------------------------------------------------------------|
G|------16------16------16b(18)*|
D|-13h14---13h14---13h14-------------------------------------14-----------------------|
A|------------------------------------------------------------------------------------|
E|------------------------------------------------------------------------------------|

e|------------------------------------------------------------------------------------|
B|------------------------------------------------------------------------------------|
G|------16------16------16b(18)*|
D|-13h14---13h14---13h14-------------------------------------14-----------------------|
A|------------------------------------------------------------------------------------|
E|------------------------------------------------------------------------------------|

e|------------------------------------------------------------------------------------|
B|------------------------------------------------------------------------------------|
G|------16------16------16b(18)*|
D|-13h14---13h14---13h14-------------------------------------14-----------------------|
A|------------------------------------------------------------------------------------|
E|------------------------------------------------------------------------------------|

e|---------------------------------------|
B|---------------------------------------|
G|*|
D|------------14-------------------------|
A|---------------------------------------|
E|---------------------------------------|

Slowly fade out in the last section.

http://*
Composição de Crime in Stereo
283 exibições
    • ½ Tom
    • A
    • Bb
    • B
    • C
    • Db
    • D
    • Eb
    • E
    • F
    • F#
    • G
    • Ab
  • Adicionar à lista

    0 comentários

    Ver todos os comentários

    Conseguiu tocar?

    0 Tocaram 0 Ainda não

    Grave um vídeo tocando Dark Island City e nos envie!

    00:00 / 00:00
    outros vídeos desta música
    repetir qualidade Automático
    Outros vídeos desta música
    00:00 / 00:00
    Automático

    Cifra Club Pro

    Aproveite o Cifra Club com benefícios exclusivos e sem anúncios
    Cifra Club Pro
    Aproveite o Cifra Club com benefícios exclusivos e sem anúncios
    OK