Cifra Club

Aprenda

Casa de Papelão

Criolo

Tab de baixo: Principal
Já pensou em usar uma coleção de roupas do Cifra Club? Responda as perguntas abaixo e nos ajude nessa missão! →
Introdução e versos
G|----------------------------------------------| até a próxima parte
D|-8-8------8---8-8-----------------------------|
A|--------8---8---------------------------------|
E|-----6------------6---------------------------|

Não de foice... (01:30)
G|----------------------------------------------| 1x
D|-8-8----------9-9-----------------------------|
A|--------8---8--------------11-----------------|
E|-----6----6-------7--11-11--------------------|

Corpos na multidão... (02:17)
G|----------------------------------------------| 5x
D|---3--------3---------------------------------|
A|-1-----4-3------4-3-4-------------------------|
E|-----1--------1-------------------------------|

(02:37)
G|----------------------------------------------| 1x
D|---4------4-----------------------------------|
A|-2---2--2---2-3/4-3---------------------------|
E|----------------------------------------------|

(02:41)
G|----------------------------------------------| 4x
D|---3--------3---------------------------------|
A|-1-----4-3------4-3-4-------------------------|
E|-----1--------1-------------------------------|

G|----------------------------------------------| 1x
D|---3--------3---------------------------------|
A|-1-----4-3------4-3-4-2~----------------------|
E|-----1--------1-------------------------------|

Versos
G|----------------------------------------------| até o fim
D|-8-8------8---8-8-----------------------------|
A|--------8---8---------------------------------|
E|-----6------------6---------------------------|
Composição de Criolo
Colaboração e revisão:
  • Walter Brow
5.749 exibições

0 comentários

Ver todos os comentários

Conseguiu tocar?

0 Tocaram 0 Ainda não

Grave um vídeo tocando Casa de Papelão e nos envie!

00:00 / 00:00
Outros vídeos desta música
Repetir Qualidade Automático
Outros vídeos desta música
00:00 / 00:00
Automático

Cifra Club Pro

Aproveite o Cifra Club com benefícios exclusivos e sem anúncios
Cifra Club Pro
Aproveite o Cifra Club com benefícios exclusivos e sem anúncios
OK