Duas de Cinco

Criolo

Composição de: Criolo / Daniel Ganjaman / Marcelo Cabral / Rodrigo Campos
tom: Ab
Intro:

E|--------------------------| 
B|-------------------6---6--|
G|-----------------5---5----| (2x)
D|--------------------------| 
A|-11--10--8--6--5----------| 
E|--------------------------| 

E|-----------------------------------|
B|-----------------------------------|
G|---5---5---5---5---5---------------|
D|-----------------------------------|
A|-4---5---6---5---4---5---3---------|
E|-----------------------------1---1-|


Compro uma pistola do vapor

Visto o jaco califórnia azul

Faço uma mandinga pro terror
E vou

E|-----------------------------------|
B|---1-----1-----1-----1-------------|
G|-----------------------------------|
D|-----------------------------------|
A|-----------------------------------|
E|-1---1-1---1-1---1-1------4--------|

É o cão, é o cânhamo, é o desamor

É o canhão na boca de quem tanto se humilhou

E|------------------------------|
B|---1-----1--------------------|
G|------------------------------|
D|------------------------------|
A|------------------------------|
E|-1---1-1------1--4--3--1------|

Inveja é uma desgraça, alastra ódio e rancor

E cocaína é uma igreja gringa de Le Chereau

E|-----------------------------------|
B|---1-----1-----1-----1-------------|
G|-----------------------------------|
D|-----------------------------------|
A|-----------------------------------|
E|-1---1-1---1-1---1-1------4--------|

Pra cada rap escrito

Uma alma que se salva

O rosto do carvoeiro

É o Brasil que mostra a cara

E|------------------------------|
B|---1-----1--------------------|
G|------------------------------|
D|------------------------------|
A|------------------------------|
E|-1---1-1------1--4--3--1------|

Muito blá se fala

E a língua é uma piranha

Aqui é só trabalho, sorte é pras crianças

E|-----------------------------------|
B|---1-----1-----1-----1-------------|
G|-----------------------------------|
D|-----------------------------------|
A|-----------------------------------|
E|-1---1-1---1-1---1-1------4--------|


Que vê o professor em desespero na miséria

Que no meio do caminho da educação havia uma pedra

E|------------------------------|
B|---1-----1--------------------|
G|------------------------------|
D|------------------------------|
A|------------------------------|
E|-1---1-1------1--4--3--1------|

E havia um pedra no meio do caminho

Ele não é preto véi

Mas no bolso leva um cachimbo

E|-------------------------------------------------|
B|-------------------------------------------------|
G|-------------------------------------------------|
D|-5---3-----5---3------5---3----------------------|
A|------------------------------------------6-5--3-|
E|--------4----------3---------4--4-3-4--6---------|

É o Sleazestack

Zóio branco repare o brilho

Chewbacca na penha

Maizena com pó de vidro

Comerciais de TV

Glamour pra alcoolismo

E é o kinect do XBOX

Por duas buchas de cinco

E|-----------------------------------|
B|---1-----1-----1-----1-------------|
G|-----------------------------------|
D|-----------------------------------|
A|-----------------------------------|
E|-1---1-1---1-1---1-1------4--------|

E|------------------------------|
B|---1-----1--------------------|
G|------------------------------|
D|------------------------------|
A|------------------------------|
E|-1---1-1------1--4--3--1------|

Chega a rir de nervoso

Comédia vai chorar

(Repete a Intro)

Compro uma pistola do vapor

Visto o jaco Califórnia azul

Faço uma mandinga pro terror

E vou

E|-----------------------------------|
B|---1-----1-----1-----1-------------|
G|-----------------------------------|
D|-----------------------------------|
A|-----------------------------------|
E|-1---1-1---1-1---1-1------4--------|

E eu fico aqui pregando a paz

E a cada maço de cigarro fumado

A morte faz um jaz entre nós

E|------------------------------|
B|---1-----1--------------------|
G|------------------------------|
D|------------------------------|
A|------------------------------|
E|-1---1-1------1--4--3--1------|

Cá pra nós, e se um de nós morrer

Pra vocês é uma beleza

E|-----------------------------------|
B|---1-----1-----1-----1-------------|
G|-----------------------------------|
D|-----------------------------------|
A|-----------------------------------|
E|-1---1-1---1-1---1-1------4--------|

Desigualdade faz tristeza
Na montanha dos sete abutres
Alguém enfeita sua mesa

E|------------------------------|
B|---1-----1--------------------|
G|------------------------------|
D|------------------------------|
A|------------------------------|
E|-1---1-1------1--4--3--1------|

Um governo que quer acabar com o crack
Mas não tem moral pra vetar
Comercial de cerveja

(Pausa na Guitarra/violão)

Alô Focault
Cê quer saber o que é loucura
É ver Hobsbawm
Na mão dos boy
Maquiavel nessa leitura
Falar pra um favelado
Que a vida não é dura
E achar que teu 12 de condomínio
Não carrega a mesma culpa

E|-------------------------------------------------|
B|-------------------------------------------------|
G|-------------------------------------------------|
D|-5---3-----5---3------5---3----------------------|
A|------------------------------------------6-5--3-|
E|--------4----------3---------4--4-3-4--6---------|

É salto alto, MD

Absolut, suco de fruta

Mas nem todo mundo é feliz

Nessa fé absoluta

Calma filha que esse doce

Não é sal de fruta

Azedar é a meta

Tá bom ou quer mais açúcar?

E|-----------------------------------|
B|---1-----1-----1-----1-------------|
G|-----------------------------------|
D|-----------------------------------|
A|-----------------------------------|
E|-1---1-1---1-1---1-1------4--------|

E|------------------------------|
B|---1-----1--------------------|
G|------------------------------|
D|------------------------------|
A|------------------------------|
E|-1---1-1------1--4--3--1------|

Chega a rir de nervoso

Comédia vai chorar

(Repete a Intro 2x)

Compro uma pistola do vapor
Visto o jaco califórnia azul
Faço uma mandinga pro terror
E vou

Compro uma pistola do vapor
Visto o jaco califórnia azul
Faço uma mandinga pro terror
E vou

E|-----------------------------------|
B|---1-----1-----1-----1-------------|
G|-----------------------------------|
D|-----------------------------------|
A|-----------------------------------|
E|-1---1-1---1-1---1-1------4--------|
Página 1 / 1

Letras e título
Acordes e artista

resetar configurações
OK