Cifra Club

Aprenda

Freguês da Meia Noite

Criolo

Tab de baixo: Principal
Já pensou em usar uma coleção de roupas do Cifra Club? Responda as perguntas abaixo e nos ajude nessa missão! →
Introdução (00:06)
g|---------------------------------------------------------------------|
d|-----------5-4---------------------------5-4-------------------------|
a|------5-6------5------5-6-6-5-5------5-6-----5------5-6-6-5/9/12/17~-|
e|-3--6------------3--6-----------3--6-----------3--6------------------|

"meia noite..." (00:32)
g|---------------------------------------------------------------------|
d|-5-5-----5---5-5-----7-7-----7-------5-5-----5-------7-7-------------|
a|-----5-5---5-----5-5-----5-5---5-3-3-----3-3---3-5-5-----5-----------|
e|---------------------------------------------------------------------|

"te esperei..." (00:54)
g|---------------------------------------------------------------------|
d|-5-5-----5---5-5-5---------------------------------------------------|
a|-----5-5---5-------5-------------------------------------------------|
e|---------------------------------------------------------------------|

"meia noite..." (01:00)
g|---------------------------------------------------------------------|
d|-5-5-----5---5-5-----7-7-----7-------5-5-----5-------7-7-------------|
a|-----5-5---5-----5-5-----5-5---5-3-3-----3-3---3-5-5-----5-----------|
e|---------------------------------------------------------------------|

"de prazer..." (01:22)
g|---------------------------------------------------------------------|
d|-5-5-----5---5-5-5---------------------------------------------------|
a|-----5-5---5-------5-------------------------------------------------|
e|---------------------------------------------------------------------|

"e não há..." (01:27)
g|-----7-----7-----5-----5-----7---------------------------------------|
d|---7-----7-----5-----5-----7---7-5-4---------------------------------|
a|-5-----5-----3-----3-----5-----------6-5-1/--------------------------|
e|---------------------------------------------------------------------|

"num quartinho de ilusão..." (01:44)
g|-----8-----8-----7-----7-----5-----5-----7---------------------------|
d|---8-----8-----7-----7-----5-----5-----7-----7-----------------------|
a|-6-----6-----5-----5-----3-----3-----5-----5---5-5-------------------|
e|---------------------------------------------------3-----------------|

Parte 2 (02:07)
g|---------------------------------------------------------------------|
d|----------------------5-4--------------------------------------------|
a|---5-6-6-5-5------5-6-----5------5-6-6-5-5------5-6-6-5/9/12/17~-----|
e|-6-----------3--6-----------3--6-----------3--6----------------------|

"meia noite..." (02:32)
g|---------------------------------------------------------------------|
d|-5-5-----5---5-5-----7-7-----7-7------5-5-----5-------7-7------------|
a|-----5-5---5-----5-5-----5-5-----3-3------3-3---3-5-5-----5----------|
e|---------------------------------------------------------------------|

"de prazer..." (02:55)
g|---------------------------------------------------------------------|
d|-5-5-----5---5-5-----------------------------------------------------|
a|-----5-5---5---------------------------------------------------------|
e|---------------------------------------------------------------------|

"e não há..." (3:00)
g|-----7-----7-----5-----5-----7---------------------------------------|
d|---7-----7-----5-----5-----7---7-5-4---------------------------------|
a|-5-----5-----3-----3-----5-----------6-5-3-1-5-----------------------|
e|---------------------------------------------------------------------|

"num quartinho de ilusão..." (03:17)
g|-----8-----8-----7-----7-----5-----5---------7-----------------------|
d|---8-----8-----7-----7-----5-----5---------7-----7-------------------|
a|-6-----6-----5-----5-----3-----3-----3-4-5-----5---5-5---------------|
e|-------------------------------------------------------3-------------|

Final (03:39)
g|---------------------------------------------------------------------|
d|----------------------5-4--------------------------------------------|
a|---5-6-6-5-5------5-6-----5------5-6-6-5-5------5-6-6-5/9/12/17~-----|
e|-6-----------3--6-----------3--6-----------3--6----------------------|

Observações:
/ = slide up
~ = deixe soar a nota
Composição de Criolo
Colaboração e revisão:
  • Walter Brow
700 exibições

0 comentários

Ver todos os comentários

Conseguiu tocar?

1 Tocaram 0 Ainda não

Grave um vídeo tocando Freguês da Meia Noite e nos envie!

00:00 / 00:00
Outros vídeos desta música
Repetir Qualidade Automático
Outros vídeos desta música
00:00 / 00:00
Automático

Cifra Club Pro

Aproveite o Cifra Club com benefícios exclusivos e sem anúncios
Cifra Club Pro
Aproveite o Cifra Club com benefícios exclusivos e sem anúncios
OK