Cifra Club

Aprenda

Linha de Frente

Criolo

Tab de baixo: Principal
Já pensou em usar uma coleção de roupas do Cifra Club? Responda as perguntas abaixo e nos ajude nessa missão! →
Cascão é rei do morro... (01:52)
G|-------------2-0-----------| ou |------------------------------------| 8x
D|-----2---0-------3-0-------|    |-------------7-5--------------------|
A|-0-3---3-------------------|    |------7---5------8-5----------------|
E|---------------------------|    |--5-8---8---------------------------|

Das crianças de lá... (02:37)
G|---------------------------------------------------------------------| 1x
D|---------------------------------------------------------------------|
A|-12-10-12-8-10-7-8-5-------------------------------------------------|
E|---------------------------------------------------------------------|

O nó da tua orelha... (02:40)
G|---------------------------------------------------------------------| 1x
D|--------------------7---7---7---8--7---7---8-7--------8-8-8-8-7------|
A|---5---5---5---5------7---7---7------7---7-----7--5-3-----------7-5--|
E|-5---5---5---5---5---------------------------------------------------|

Magali faz a cadência... (03:02)
G|---------------------------------------------------------------------| 1x
D|---------------7---7---7---7---8--7---7---8-7------------------------|
A|---5---5---5-----5---7---7---7------7---7-----7--5-3-----5-----------|
E|-5---5---5---5---------------------------------------6-5-------------|

O dinheiro vem... (03:24)
G|---------------------------------------------------------------------| 1x
D|---------------7-----------------------------------------------------|
A|---5---6---6------10--8----3---5---5---6---6-------------------------|
E|-5---5---6---6-----------5---5---5---5---6---6-5---------------------|

Cascão é rei do morro... (03:44)
G|-------------2-0-----------| ou |------------------------------------| até o fim
D|-----2---0-------3-0-------|    |-------------7-5--------------------|
A|-0-3---3-------------------|    |------7---5------8-5----------------|
E|---------------------------|    |--5-8---8---------------------------|
Composição de Criolo
Colaboração e revisão:
  • Walter Brow
502 exibições

0 comentários

Ver todos os comentários

Conseguiu tocar?

0 Tocaram 0 Ainda não

Grave um vídeo tocando Linha de Frente e nos envie!

00:00 / 00:00
Outros vídeos desta música
Repetir Qualidade Automático
Outros vídeos desta música
00:00 / 00:00
Automático

Cifra Club Pro

Aproveite o Cifra Club com benefícios exclusivos e sem anúncios
Cifra Club Pro
Aproveite o Cifra Club com benefícios exclusivos e sem anúncios
OK