Cifra Club

Aprenda

Não Existe Amor Em Sp

Criolo

Tab de baixo: Principal
Já pensou em usar uma coleção de roupas do Cifra Club? Responda as perguntas abaixo e nos ajude nessa missão! →
Não existe... (00:14)
G|-----------------------------------------------------|
D|-----------------------------------9h11--------------|
A|-----------------------------------------------------|
E|-13~-11~-10~-9~-13~-11~-10-6~-6/9~-------------------|

Buquê são flores... (00:41)
G|-----------------------------------------------------|
D|-----------------------------------------------------|
A|-----------------------------------------------------|
E|-13~-11~-10~-9~-9/13~-11~-10-6~/9~/------------------|

A vaidade excita... (01:08)
G|-----------------------------------------------------|
D|-----------------------------------------------------|
A|-----------------------------------------------------|
E|-13~-11~-10~-9~--------------------------------------|

Aqui, ninguém vai... (01:20)
G|-----------------------------------------------------|
D|-----------------------------------------------------|
A|-----------------------------------------------------|
E|-4-3-2-1~-1/11~-10~-9~-------------------------------|

Não precisa morrer... (01:35)
G|-----------------------------------------------------|
D|-----------------------------------------------------|
A|-----------------------------------------------------|
E|-13~-11~-10~-0-9~--13~-11~-10~-9~-9/-----------------|

Não precisa morrer... (02:02)
G|-----------------------------------------------------|
D|-----14h15------------------13/15-13~-13/15-12~------|
A|-----------------------------------------------------|
E|-13~-------11~-10~-9~-9/13~---------------------9~-9~|

Não existe amor... (02:29)
G|-----------------------------------------------------|
D|-----------------------------------9h11--------------|
A|-----------------------------------------------------|
E|-13~-11~-10~-9~-13~-11~-10-6~-6/9~-------------------|

Buquê são flores... (02:56)
G|-----------------------------------------------------|
D|-----------------------------------------------------|
A|-----------------------------------------------------|
E|-13~-11~-10~-9~-9/13~-11~-10-6~-9~-------------------|

A vaidade excita... (03:23)
G|-----------------------------------------------------|
D|-----------------------------------------------------|
A|-----------------------------------------------------|
E|-13~-11~-10~-9~--------------------------------------|

Aqui, ninguém vai... (03:35)
G|-----------------------------------------------------|
D|-----------------------9h11~-------------------------|
A|-----------------------------------------------------|
E|-4-3-2-1~-1/11~-10~-9~-------------------------------|

Não precisa morrer... (03:50)
G|-----------------------------------------------------|
D|-----------------9h11~-----13/15-13~-12~-11~---------|
A|-----------------------------------------------------|
E|-13~-11~-10~-9~--------13~-------------------9~/-----|

Não precisa morrer... (04:18)
G|-----------------------------------------------------|
D|-----------------------------------------------------|
A|-----------------------------------------------------|
E|-13~-11~-10~-9~-\1~~---------------------------------|

Observações:
~ - deixe a nota soar
h - hammer on
/ - slide up
\ - slide down
Composição de Criolo
Colaboração e revisão:
  • Walter Brow
  • J. Vidal
2.849 exibições

0 comentários

Ver todos os comentários
00:00 / 00:00
Outros vídeos desta música
Repetir Qualidade Automático
Outros vídeos desta música
00:00 / 00:00
Automático

Cifra Club Pro

Aproveite o Cifra Club com benefícios exclusivos e sem anúncios
Cifra Club Pro
Aproveite o Cifra Club com benefícios exclusivos e sem anúncios
OK