Cifra Club

Aprenda

Pegue Pra Ela

Criolo

Tab de baixo: Principal
Já pensou em usar uma coleção de roupas do Cifra Club? Responda as perguntas abaixo e nos ajude nessa missão! →
INTRO (00:01)
G|-----------------------------------------------------------------------------------------------| 1x
D|-------------19----------------------------------19--------------------------------------------|
A|----------------19----21-22-21----------------------19----21-22-21-19-19-20-19-----------------|
E|-12-17-20-19-------20----------20----12-17-20-19-------20--------------8-----------------------|

G|-----------------------------------------------------------------------------------------------| 1x
D|-------------19--------------------------------19----------------------------------------------|
A|----------------19----21-22-21--------------------19----21-22-21-19-19-17----------------------|
E|-12-17-20-19-------20----------20--12-17-20-19-------20-------------------20-20-19-20-15-14-15-|

(00:35)
G|---------------------------------------------------------------------| 10x
D|---10------------------7---------------------------------------------|
A|------10-------12--------7-----5-------------------------------------|
E|-8-------10-10----10\5-----5-5---5-----------------------------------|

(01:19)
G|---------------------------------------------------------------------| 1x
D|---10------------------7---7-----------------------------------------|
A|------10-------12------------7---------------------------------------|
E|-8-------10-10----10\5---5-----5\------------------------------------|

Essa nave já vai partir... (01:25)
G|---------------------------------------------------------------------| 1x
D|---------------------------------------------------------------------|
A|-----------------------------5-5-5\----------------------------------|
E|-8-7-5-3-2-0-2-3-5-7-8-7-5-0-----------------------------------------|

Pra cada toco dentro do eixo... (01:41)
G|---------------------------------------------------------------------| 1x
D|-4-2-0-------4-2-0---------------------------------------------------|
A|-------3-2---------3-5-----------------------------------------------|
E|-----------3-----------7---------------------------------------------|

Pegue pra ela... (01:59)
G|---------------------------------------------------------------------| 6x
D|---10------------------7---------------------------------------------|
A|------10-------12--------7-----5-------------------------------------|
E|-8-------10-10----10\5-----5-5---5-----------------------------------|

Conte pra ela... (02:27)
G|---------------------------------------------------------------------| 1x
D|---10------------------7---7-----------------------------------------|
A|------10-------12------------7---------------------------------------|
E|-8-------10-10----10\5---5-----5\------------------------------------|

Essa nave já vai partir... (02:33)
G|---------------------------------------------------------------------| 1x
D|---------------------------------------------------------------------|
A|-----------------------------5-5-5\----------------------------------|
E|-8-7-5-3-2-0-2-3-5-7-8-7-5-0-----------------------------------------|

Pra cada toco dentro do eixo... (02:49)
G|---------------------------------------------------------------------| 1x
D|-4-2-0-------4-2-0---------------------------------------------------|
A|-------3-2---------3-5-----------------------------------------------|
E|-----------3-----------7---------------------------------------------|

SOLO parte 1 (03:05)
G|--------------------------------------------------------12-11----11--| 1x
D|---------------------------------9-------10-9-7-9-10-12-------14-----|
A|-------------7------9-7-5-7-9-10---12-10-----------------------------|
E|-7-5-3-5-7-8---10-8--------------------------------------------------|

SOLO parte 2 (03:13)
G|--------------------------------------------------------12-11--------| 1x
D|---------------------------------9-------10-9-7-9-10-12-------14-12--|
A|-------------7------9-7-5-7-9-10---12-10-----------------------------|
E|-7-5-3-5-7-8---10-8--------------------------------------------------|

(03:21)
G|---------------------------------------------------------------------| 2x
D|---------------------------------------------------------------------|
A|-------10-0-7-0-------10-9-7-0-5-0-----------------------------------|
E|-5-8-7----------5-8-7------------------------------------------------|

(03:37)
G|---------------------------------------------------------------------| 6x
D|---10------------------7---------------------------------------------|
A|------10-------12--------7-----5-------------------------------------|
E|-8-------10-10----10\5-----5-5---5-----------------------------------|

(04:05)
G|---------------------------------------------------------------------| 1x
D|---10----------------------------------------------------------------|
A|------10-------12----12-12-10-9-5-5-7--------------------------------|
E|-8-------10-10----10------------------5------------------------------|

(04:13)
G|---------------------------------------------------------------------| 1x
D|---10------------------7---------------------------------------------|
A|------10-------12--------7-----5-------------------------------------|
E|-8-------10-10----10\5-----5-5---5-----------------------------------|

(04:17)
G|---------------------------------------------------------------------| 1x
D|---10----------------------------------------------------------------|
A|------10-------12----------------------------------------------------|
E|-8-------10-10----10\5-----------------------------------------------|
Composição de Kleber Cavalcante Gomes
Colaboração e revisão:
  • Walter Brow
153 exibições

0 comentários

Ver todos os comentários

Conseguiu tocar?

0 Tocaram 0 Ainda não

Grave um vídeo tocando Pegue Pra Ela e nos envie!

00:00 / 00:00
Outros vídeos desta música
Repetir Qualidade Automático
Outros vídeos desta música
00:00 / 00:00
Automático

Cifra Club Pro

Aproveite o Cifra Club com benefícios exclusivos e sem anúncios
Cifra Club Pro
Aproveite o Cifra Club com benefícios exclusivos e sem anúncios
OK