Cifra Club

Aprenda

Sucrilhos

Criolo

Tab de baixo: Principal
Quer fazer aulas de música com a gente? Responda essas perguntas
e nos ajude nesse projeto! →
Calçada pra favela... (00:10)
G|----------------------------------------------------------------| 7x
D|----------------10----------------------------------------------|
A|-10-----10-8--8----8-10-----10-8--8---8-------------------------|
E|-----10------------------10---------8---------------------------|

Eu sou nota 5... (00:52)
G|----------------------------------------------------------------| 1x
D|----------------10----------------------------------------------|
A|-10-----10-8--8----8------22\19\12\-----------------------------|
E|-----10-----------------------------0-2-------------------------|

Pode colar... (00:58)
G|----------------------------------------------------------------| 8x
D|----------------------------------------------------------------|
A|-------------3--------------------------------------------------|
E|-3--0-3-1--1---1------------------------------------------------|

O planeta jaz... (01:22)
G|----------------------------------------------------------------| 7x
D|----------------10----------------------------------------------|
A|-10-----10-8--8----8-10-----10-8--8---8-------------------------|
E|-----10------------------10---------8---------------------------|

Vacilou num jab... (02:05)
G|----------------------------------------------------------------| 1x
D|----------------10-----17--15--10-10----------------------------|
A|-10-----10-8--8----8-----------------8--------------------------|
E|-----10---------------------------------------------------------|

Pode colar... (02:10)
G|----------------------------------------------------------------| 16x
D|----------------------------------------------------------------|
A|-------------3--------------------------------------------------|
E|-3--0-3-1--1---1------------------------------------------------|

Eu tenho orgulho... (03:10)
G|----------------------------------------------------------------| até o fim
D|----12---10----12---10------------------------------------------|
A|-10----8----10----8----8----------------------------------------|
E|----------------------------------------------------------------|
Composição de Criolo
Colaboração e revisão:
  • Walter Brow
14.579 exibições

0 comentários

Ver todos os comentários

Conseguiu tocar?

0 Tocaram 1 Ainda não

Grave um vídeo tocando Sucrilhos e nos envie!

00:00 / 00:00
Outros vídeos desta música
Repetir Qualidade Automático
Outros vídeos desta música
00:00 / 00:00
Automático

Cifra Club Pro

Aproveite o Cifra Club com benefícios exclusivos e sem anúncios
Cifra Club Pro
Aproveite o Cifra Club com benefícios exclusivos e sem anúncios
OK