Cifra Club

O Sonho Não Acabou

Cris-oeste

Cifra: Principal (violão e guitarra)
tom: Bb (forma dos acordes no tom de G) Capotraste na 3ª casa
Base Teclado:
E|--3------3-2--------------2-------2-0----------|
B|----0-0-------3-0------------3-0-------2-------|
G|-----------------------------------------2-----|
D|-----------------------------------------------|
A|-----------------------------------------------|
E|-----------------------------------------------|

Têm umas pessoas que eu não posso esquecer:
   Am        C             G            D
E|--------------------------------8-6b^-8-------------------------|
B|----------------------------6-8----------6-4---6-4--------------|
G|----8b^-5-----5-8----5-8---------------------5-----5------------|
D|----------8-----------------------------------------------------|
A|----------------------------------------------------------------|
E|----------------------------------------------------------------|
     Am        C           G          D
E|--------------11-11/10-10/8-8/6---6-6/8-8-8---------------------|
B|----------11--------------------8-------------------------------|
G|----8b^-5-------------------------------------------------------|
D|----------------------------------------------------------------|
A|----------------------------------------------------------------|
E|----------------------------------------------------------------|
    Am           C                   G           D
E|-------------11-11-11-11-10-10-8---11b^11b^-11------------------|
B|------------------------------------------------13-11-13b^-13---|
G|----------------------------------------------------------------|
D|-------5--------------------------------------------------------|
A|----------------------------------------------------------------|
E|----------------------------------------------------------------|
    Am     C            G                  D
E|----------------------------------------------------------------|
B|------------------------------------------11-11---13-13-13^-^-^-|
G|----8--5-------------5------8-5-8----12-------------------------|
D|----------5--8-8-8------5/8-------------------------------------|
A|----------------------------------------------------------------|
E|----------------------------------------------------------------|
00:00 / 00:00
Outros vídeos desta música
Repetir
Outros vídeos desta música
Composição de Clistenes
Colaboração e revisão:
  • Cristian
11.477 exibições
    • ½ Tom
    • A
    • Bb
    • B
    • C
    • Db
    • D
    • Eb
    • E
    • F
    • F#
    • G
    • Ab
  • Adicionar à lista

    0 comentários

    Ver todos os comentários

    Entre para oCifra Club PRO

    Tenha acesso a benefícios exclusivos no App e no Site

    • Chega de anúncios

    • Prioridade de compra em lançamentos

    • Mais recursos no app do Afinador

    • Atendimento Prioritário

    • Descontos nos produtos Cifra Club

    • Ajude a produzir mais conteúdo

    00:00 / 00:00

    Cifra Club Pro

    Aproveite o Cifra Club com benefícios exclusivos e sem anúncios
    Cifra Club Pro
    Aproveite o Cifra Club com benefícios exclusivos e sem anúncios
    OK