Cifra Club

As Lágrimas Vão Te Afogar

Cristiano Araújo

Cifra: Principal (violão e guitarra)
tom: D
[Intro] Bm7  F#m  G  Gm

E|------------------------------------------|
B|---3-2-3-2--2-0-2-0-----------------------|
G|---------------------2-2/4----------------|
D|-4----------------------------------------|
A|------------------------------------------|
E|------------------------------------------|

E|---3-5-5/6-5-3--5-3-5-3-------------------|
B|-3-----------------------2/3-3-3----------|
G|------------------------------------------|
D|------------------------------------------|
A|------------------------------------------|
E|------------------------------------------|

[Primeira Parte]

D                                              Bm7
  Bateu a porta na minha cara e disse vou embora
                                 G
E sem pensar em nada você jogou fora
                                   D9  D
Nossa história e o amor que eu te dei

                                  Bm7
Menos de 24 horas, vem notícias suas
                                   G
Seus beijos espalhados no meio da rua
                          D 
Coisa feia essa sua loucura

[Pré-Refrão]

                Bm7
Foi infantil demais
                F#m
Você passou da conta
       G
Me explica esse seu desespero
         Gm                         Bm7
Se entregando pra outro tão cedo demais
             F#m                     G
Se tava confiante, voltou aqui por que?
      Gm
Deve ser pra ouvir eu dizer

[Refrão]

D
  É que lá fora não achou ninguém melhor que eu
Bm7
   Se agora descobriu que ama

O problema é seu
G
  Tá chorando? Acho melhor parar
Gm
   Se depender de mim as lágrimas vão te afogar

[Solo] D  Bm7  G  Gm 

E|------------------------------------------|
B|-5/7-7-7-7-7-7-5-5/7-7-7-7-7\5-3-3--------|
G|-6/7-7-7-7-7-7-6-6/7-7-7-7-7\6-4-4--------|
D|------------------------------------------|
A|------------------------------------------|
E|------------------------------------------|

E|------------------------------------------|
B|-5/7-7-7-7-7-7-5-5/7-7-7-7-7\5-3-3--------|
G|-6/7-7-7-7-7-7-6-6/7-7-7-7-7\6-4-4--------|
D|------------------------------------------|
A|------------------------------------------|
E|------------------------------------------|

E|------------------------------------------|
B|-3-3-3/5-5/7--3-3-3/5-5/7-----------------|
G|------------------------------------------|
D|------------------------------------------|
A|------------------------------------------|
E|------------------------------------------|

[Pré-Refrão]

                Bm7
Foi infantil demais
                F#m
Você passou da conta
       G
Me explica esse seu desespero
         Gm                         Bm7
Se entregando pra outro tão cedo demais
             F#m                     G
Se tava confiante, voltou aqui por que?
      Gm
Deve ser pra ouvir eu dizer

[Refrão]

D
  É que lá fora não achou ninguém melhor que eu
Bm7
   Se agora descobriu que ama

O problema é seu
G
  Tá chorando? Acho melhor parar
Gm
   Se depender de mim as lágrimas vão te afogar

( D  A )

G
  Tá chorando? Acho melhor parar
Gm                                           D
   Se depender de mim as lágrimas vão te afogar
00:00 / 00:00
Outros vídeos desta música
Repetir
Outros vídeos desta música
Composição de Wadson Araujo
Colaboração e revisão:
  • Thiago Almeida
  • Luciane Prod.
  • Vinícius Moura
199.640 exibições
    • ½ Tom
    • A
    • Bb
    • B
    • C
    • Db
    • D
    • Eb
    • E
    • F
    • F#
    • G
    • Ab
  • Adicionar à lista

    0 comentários

    Ver todos os comentários

    Conseguiu tocar?

    26 Tocaram 7 Ainda não

    Grave um vídeo tocando As Lágrimas Vão Te Afogar e nos envie!

    Entre para oCifra Club PRO

    Tenha acesso a benefícios exclusivos no App e no Site

    • Chega de anúncios

    • Prioridade de compra em lançamentos

    • Mais recursos no app do Afinador

    • Atendimento Prioritário

    • Descontos nos produtos Cifra Club

    • Ajude a produzir mais conteúdo

    00:00 / 00:00

    Cifra Club Pro

    Aproveite o Cifra Club com benefícios exclusivos e sem anúncios
    Cifra Club Pro
    Aproveite o Cifra Club com benefícios exclusivos e sem anúncios
    OK