Cifra Club

Aprenda

Mente Pra Mim

Cristiano Araújo

Cifra: Principal (violão e guitarra)
tom: E
[Intro]  C#m  E  B  F#  G#m

E|----------------------------------------------------|
B|----------------------------------------------------|
G|----------------------------------------------------|
D|--6-4-6-4-6-4-6-6-6-4-6-4-6-6/8/9-6-6-4-6-4-6-------|
A|----------------------------------------------------|
E|----------------------------------------------------|

G|----------------------------------------------------|
E|----------------------------------------------------|
B|-9-7-7-7-7-7-7--7-7-7-7/9-7-7-7-2/7-9---------------|
G|----------------------------------------------------|
D|----------------------------------------------------|
A|----------------------------------------------------|
E|----------------------------------------------------|

[Primeira Parte]

C#m
Olha dentro dos meus olhos
                    E
E me conta umas mentiras só pra me agradar
 B
Fala que hoje eu tô bonito
                    F#                     G#m
Que ainda pensa em mim quando vai se deitar

 C#m
Diz que quando acorda todo dia
                 E
Seu primeiro pensamento pode ser que seja eu
 B
Mente pra esse cara inocente
                 F#
Fala que ele ainda vai ser seu

[Pré-Refrão]

C#m
O amor da sua vida era eu
      F#4 F# F#4 F#
Não era verdade
A                       F#m
Eu vou amar doendo, eu vou amar sofrendo.
 B
Mesmo sabendo que tudo pode acabar!

[Refrão]

 C#m
Mente pra mim é o que eu gosto
  A
Quanto mais você me ilude mais eu te adoro
 E
Menina indecente, que finge ser carente
B
E é desse jeito que eu te provoco

 C#m
Mente pra mim é o que eu gosto
  A
Quanto mais você me ilude mais eu te adoro
 E
Menina indecente, que finge ser carente
B
E é desse jeito que eu te provoco

(  C#m  A  E  B  )

E|----------------------------------------------------|
B|-5-5-4-5-5-4-5-4-2----5-4-5-4-5-4-5-4-5-4-5-4-2-----|
G|-------------------4--------------------------------|
D|----------------------------------------------------|
A|----------------------------------------------------|
E|----------------------------------------------------|

E|----------------------------------------------------|
B|--------------------------4-2-4-2-4-2-4-4/5-4-------|
G|4-4-4-4-4-6-4-4-4-4-4-6-4---------------------4-----|
D|-----------------------------------------------4-6-4|
A|----------------------------------------------------|
E|----------------------------------------------------|

[Pré-Refrão]

C#m
O amor da sua vida era eu
      F#4 F# F#4 F#
Não era verdade
A                       F#m
Eu vou amar doendo, eu vou amar sofrendo
 B
Mesmo sabendo que tudo pode acabar!

[Refrão]

 C#m
Mente pra mim é o que eu gosto
  A
Quanto mais você me ilude mais eu te adoro
 E
Menina indecente, que finge ser carente
B
E é desse jeito que eu te provoco

 C#m
Mente pra mim é o que eu gosto
  A
Quanto mais você me ilude mais eu te adoro
 E
Menina indecente, que finge ser carente
B
E é desse jeito que eu te provoco

 C#m
Mente pra mim é o que eu gosto
  A
Quanto mais você me ilude mais eu te adoro
 E
Menina indecente, que finge ser carente
B
E é desse jeito que eu te provoco

 C#m
Mente pra mim é o que eu gosto
  A
Quanto mais você me ilude mais eu te adoro
 E
Menina indecente, que finge ser carente
B
E é desse jeito que eu te provoco
Composição de Bigair Di Jayme / Israel Novaes / Matheus Aleixo
Colaboração e revisão:
695.521 exibições
    • ½ Tom
    • A
    • Bb
    • B
    • C
    • Db
    • D
    • Eb
    • E
    • F
    • F#
    • G
    • Ab
  • Adicionar à lista

    0 comentários

    Ver todos os comentários
    00:00 / 00:00
    Outros vídeos desta música
    Repetir Qualidade Automático
    Outros vídeos desta música
    00:00 / 00:00
    Automático

    Cifra Club Pro

    Aproveite o Cifra Club com benefícios exclusivos e sem anúncios
    Cifra Club Pro
    Aproveite o Cifra Club com benefícios exclusivos e sem anúncios
    OK