Cifra Club

O Quanto Nosso Amor Valeu

Cristiano Araújo

Cifra: Principal (violão e guitarra)
tom: F (forma dos acordes no tom de G) Afinação: D G C F A D
Intro: Em  Bm  C  G  D
E|-------------------------------------------------------------------------------------------|
B|-------------------------------------------------------------------------------------------|
G|----------7-7-9-7-----------7-7-9-7---9--11--12---9-9--------------7--9--7-----------------|
D|--5--7--9-----------5--7--9----------------------------10-10---10-----------10-9--7--------|
A|-------------------------------------------------------------------------------------------|
E|-------------------------------------------------------------------------------------------|

   G                         D
Tentei, mas foi inútil pôr alguém em seu lugar
  C                    G             D   D#º
Você marcou demais, você me fez sonhar.
                           D
Busquei em outra boca o sabor do beijo seu,
     C
Em outros braços percebi o quanto o nosso amor
   G
valeu.

Em            Bm   C                     D
Saiu da minha vida levou a minha outra metade,
Em                     Bm      C
De tudo que passamos juntos, ficou para mim só a
   D     D#º
saudade.

Em                                     Bm
Cadê você que não me liga pra dizer ao menos se está tudo bem ?
              C                                    G
Ou se alguma vez ouviu seu coração pedindo pra  voltar ?

      Am                                Em
Porque eu muitas vezes me peguei aqui sonhando
                                 D            C
Com você chegando, dizendo: “te amo, amor, voltei
 D    G
pra ficar"

Solo: Em  Bm  C  G  D
E|-------------------------------------------------------------------------------------------|
B|-------------------------------------------------------------------------------------------|
G|----------7-7-9-7-----------7-7-9-7---9--11--12---9-9--------------7--9--7-----------------|
D|--5--7--9-----------5--7--9----------------------------10-10---10-----------10-9--7--------|
A|-------------------------------------------------------------------------------------------|
E|-------------------------------------------------------------------------------------------|

Em            Bm   C                     D
Saiu da minha vida levou a minha outra metade,
Em                     Bm      C
De tudo que passamos juntos, ficou para mim só a
   D
saudade.

Em                                     Bm
Cadê você que não me liga pra dizer ao menos se está tudo bem ?
              C                                   G
Ou se alguma vez ouviu seu coração pedindo pra voltar?

      Am                                Em
Porque eu muitas vezes me peguei aqui sonhando
                                 D            C
Com você chegando, dizendo: “te amo, amor, voltei
 D    G
pra ficar"
E|----------------------------------11-10-8-7------------|
B|-------------------------------------------------------|
G|----------7-7-9-7--------------------------------------|
D|--5--7--9-----------10-9-7----9------------------------|
A|---------------------------10--------------------------|
E|-------------------------------------------------------|
00:00 / 00:00
Outros vídeos desta música
Repetir
Outros vídeos desta música
Composição de Leonardo
Colaboração e revisão:
  • Erica
41.226 exibições
    • ½ Tom
    • A
    • Bb
    • B
    • C
    • Db
    • D
    • Eb
    • E
    • F
    • F#
    • G
    • Ab
  • Adicionar à lista

    0 comentários

    Ver todos os comentários

    Conseguiu tocar?

    3 Tocaram 0 Ainda não

    Grave um vídeo tocando O Quanto Nosso Amor Valeu e nos envie!

    Entre para oCifra Club PRO

    Tenha acesso a benefícios exclusivos no App e no Site

    • Chega de anúncios

    • Prioridade de compra em lançamentos

    • Mais recursos no app do Afinador

    • Atendimento Prioritário

    • Descontos nos produtos Cifra Club

    • Ajude a produzir mais conteúdo

    00:00 / 00:00

    Cifra Club Pro

    Aproveite o Cifra Club com benefícios exclusivos e sem anúncios
    Cifra Club Pro
    Aproveite o Cifra Club com benefícios exclusivos e sem anúncios
    OK