Resgate

Cristiano Araújo

tom: D
Intro 2x: G Bm A

E|------------------------------2-2---------------|
B|---------------------3-3--5-------3-----2----5--|
G|-4-X--2-X------------------------------3----6---|
D|-5-X--0-X--0-0-X--0--4-4--4---4-4-5---4----7----|
A|-5-X----X--2-2-X--2------------------4----7-----|
E|------3-X--3-3-X--3-----------------------------|

E|--------------------------2-2---2-2---------|
B|--------------------3-3-5------------5-5----|
G|-4-X--2-X-----------------------------------|
D|-5-X--0-X--0-0-X--0-4-4-4-4-4---4-4--4-4----|
A|-5-X----X--2-2-X--2-------------------------|
E|------3-X--3-3-X--3-------------------------|
G                                D
Não dá mais, não dá mais pra continuar
G                             D            Em
Minha paz só volta quando eu te encontrar
       F#m            G           A  D        Em
E bate forte essa vontade quando eu te vejo
            F#m             G
Não mando mais nos meus instintos
         A      D
Nem nos meus desejos

A                    Bm            G
Não quero abrir meus olhos e não,
               A
E não te enxergar

D
Eu tô pedindo o seu resgate
                E
Vem meu bem me salvar
               G                        Bm   A
Seu beijo me acalma, sem ele eu perco o ar
D
Eu tô pedindo o seu resgate,
              E
Aquele boca a boca
                 G    A
Essa paixão tão louca, que eu volto a respirar

(Intro)

G                                D
Não dá mais, não dá mais pra continuar
G                             D            Em
Minha paz só volta quando eu te encontrar
       F#m            G           A  D        Em
E bate forte essa vontade quando eu te vejo
            F#m             G
Não mando mais nos meus instintos
         A      D
Nem nos meus desejos

A                    Bm            G
Não quero abrir meus olhos e não,
               A
E não te enxergar

D
Eu tô pedindo o seu resgate
                E
Vem meu bem me salvar
               G                        Bm   A
Seu beijo me acalma, sem ele eu perco o ar
D
Eu tô pedindo o seu resgate,
              E
Aquele boca a boca
                 G    A
Essa paixão tão louca, que eu volto a respirar (2x)

Que eu volto a respirar
Página 1 / 1

Letras e título
Acordes e artista

resetar configurações
OK