Cifra Club

Spark Another Owl

Cypress Hill

Tab de baixo: Principal
exibições 230
III (Temples of Boom)

G -----------------------------------------|
D -----3-------------4---------5-5---------|
A -------3---------------------------------|
E -1-1-----1----2-2----3-3-----------------|

G -----------------------------------------|
D -----3-------------4---------5-5---------|
A -------3---------------------------------|
E -1-1-----1----2-2----3-3-----------------|
Composição: Louis Freese / Muggs

0 comentários

    mostrar mais comentários

    Conseguiu tocar?

    0tocaram0ainda não

    Grave um vídeo tocando Spark Another Owl e mande pra gente!

    00:00 / 00:00
    outros vídeos desta música
    repetirqualidadeautomática
    Outro vídeos desta música
      00:00 / 00:00
      automática
      OK