Cifra Club

What Go Around Come Around Kid

Cypress Hill

Tab de baixo: Principal
exibições 212
By: Jon Craven (*)
For questions, comments, feedback, an outline of the timing, write the above
address.

(4/4)(91 bpm)
Standard tuning

* - note held for an eighth beat
|-R-| - rest for one measure
R - quarter rest
r - eighth rest

Intro (chorus 1): (x7)
|----------------|----------------|----------------|----------------|
|----------------|----------------|----------------|----------------|
|4-*-*-4---------|4-*-*-4---------|4-*-*-4---------|4-*-*-4---------|
|--------4-*-*-44|--------4-*-*-44|--------4-*-*-44|--------4-*-*-44|

|----------------|----------------|----------------|---|
|----------------|----------------|----------------|---|
|4-*-*-4---------|4-*-*-4---------|4-*-*-4---------|---|
|--------4-*-*-44|--------4-*-*-44|--------4-*-*-44|-R-|

Verse 1: (0:21)
|----------------|----------------|----------------|----------------|
|----------------|----------------|----------------|----------------|
|4-*-*-4---------|4-*-*-4---------|4-*-*-4---------|4-*-*-4---------|
|--------4-*-*-44|--------4-*-*-44|--------4-*-*-44|--------4-*-*-44|

|----------------|----------------|----------------|----------------|
|----------------|----------------|----------------|----------------|
|4-*-*-4---------|4-*-*-4---------|4-*-*-4---------|4-*-*-4---------|
|--------4-*-*-44|--------4-*-*-44|--------4-*-*-44|--------4-*-*-44|

|----------------|----------------|----------------|---|
|----------------|----------------|----------------|---|
|R---r-4---------|4-*-*-4---------|4-*-*-4---------|---|
|--------4-*-*-44|--------4-*-*-44|--------4-*-*-44|-R-|

Chorus 1

Verse 2: (1:14)
|----------------|----------------|----------------|----------------|
|----------------|----------------|----------------|----------------|
|4-*-*-4---------|4-*-*-4---------|4-*-*-4---------|4-*-*-4---------|
|--------4-*-*-44|--------4-*-*-44|--------4-*-*-44|--------4-*-*-44|

|----------------|----------------|----------------|----------------|
|----------------|----------------|----------------|----------------|
|4-*-*-4---------|4-*-*-4---------|4-*-*-4---------|4-*-*-4---------|
|--------4-*-*-44|--------4-*-*-44|--------4-*-*-44|--------4-*-*-44|

|----------------|----------------|---|
|----------------|----------------|---|
|4-*-*-4---------|4-*-*-4---------|---|
|--------4-*-*-44|--------4-*-*-44|-R-|

Chorus 2 (outro): (1:46)
|----------------|
|----------------|
|4-*-*-4---------|
|--------4-*-*-44|

Rest for four measures

Verse 3: (2:18)
|----------------|----------------|----------------|----------------|
|----------------|----------------|----------------|----------------|
|4-*-*-4---------|4-*-*-4---------|4-*-*-4---------|4-*-*-4---------|
|--------4-*-*-44|--------4-*-*-44|--------4-*-*-44|--------4-*-*-44|

|----------------|----------------|----------------|----------------|---|---|
|----------------|----------------|----------------|----------------|---|---|
|4-*-*-4---------|4-*-*-4---------|4-*-*-4---------|4-*-*-4---------|---|---|
|--------4-*-*-44|--------4-*-*-44|--------4-*-*-44|--------4-*-*-44|-R-|-R-|

Chorus 1 (x2)
Outro (x5)(fading)
Rest till end

0 comentários

    mostrar mais comentários

    Conseguiu tocar?

    0tocaram0ainda não

    Grave um vídeo tocando What Go Around Come Around Kid e mande pra gente!

    00:00 / 00:00
    outros vídeos desta música
    repetirqualidadeAutomático
    Outro vídeos desta música
      00:00 / 00:00
      OK