Git Up

D12

Composição de: Marshall Mathers
2004 Interscope Records


Intro:
G|---
D|---
A|-2-
E|---


Verses up to chorus all the way
G|-----------------------------------|
D|---------4-4-4-4-----------0-0-0-0-|
A|-2-2-2-2---------2-2-2-2-2---------|
E|-----------------------------------|
then
G|-------------------------------------------------|
D|-------------16-16-16-16-------------12-12-12-12-|
A|-14-14-14-14-------------14-14-14-14-------------|
E|-------------------------------------------------|
then
G|---------------------------------|
D|-----0-----0-----0-----0---4---4-|
A|-2-4---2-4---2-4---2-4---2---2---|
E|---------------------------------|
Página 1 / 1

Letras e título
Acordes e artista

resetar configurações
OK