My Band

D12

Composição de: D.Holton / D.Porter / L.Resto / M.Mathers / O.Moore / R.Johnson / S.King / V.Carlisle
tom: A
Essa música do D12 fica nessa base o tempo todo. Ouça a música and 
enjoy yourself!...

Riff Um
E-----5-4------------9--
B---7----7--7-----------
G-6-------6---7-6-7-----  (3x)
D-----------------------
A-----------------------
E-----------------------

Riff Dois

E-----5-4-------5-4-3---
B---7----7--7-----------
G-6-------6-------------  (3x)
D-----------------------
A-----------------------
E-----------------------
Página 1 / 1

Letras e título
Acordes e artista

resetar configurações
OK