Cifra Club

Aprenda

Llamada de Emergencia

Daddy Yankee

Cifra: Principal (violão e guitarra)
tom: Em
E|--------------------------|
B|--8--7--5--3--1----3--5---| (x2)
G|--------------------------|
D|--------------------------|
A|--------------------------|
E|--------------------------|

Y comienza con la letra (rápido):
E|---------------------------------|
B|--5--5--7--8--7--5--3--1---3--5--|
G|---------------------------------|
D|---------------------------------|
A|---------------------------------|
E|---------------------------------|
   Ven y  sa-na mi do-lo---oo-or

E|---------------------------------|
B|--5--5--7--8--7--5--3--1---3--5--|
G|---------------------------------|
D|---------------------------------|
A|---------------------------------|
E|---------------------------------|
   tienes la cu-ra deeste am--oo-or

E|-------------------------------------|
B|--5--5--5--7--8--7--3--3--5--7--3--5-|
G|-------------------------------------|
D|-------------------------------------|
A|-------------------------------------|
E|-------------------------------------|
  Hago este llamado para que tú vuelvas

E|----------------------------------------------|
B|--5--5--5--5--5--5--3--5--5--5--7--5--5--3--5-|
G|----------------------------------------------|
D|----------------------------------------------|
A|----------------------------------------------|
E|----------------------------------------------|
  Tu no ves que estoy sufriendo es muy dura esta prueba

E|----------------------------|
B|--5--5--5--5--5--5--8--7--5-|
G|----------------------------|
D|----------------------------|
A|----------------------------|
E|----------------------------|
    Hay un hombre moribundo aquí

E|----------------------------|
B|--3--3--3--3--3--3--7--5--5-|
G|----------------------------|
D|----------------------------|
A|----------------------------|
E|----------------------------|
    Dime quien lo puede revivir

E|---------------------------------------------|
B|--5--5--5--1--1--1--3---5--5--5--1--1--1--3--|
G|---------------------------------------------|
D|---------------------------------------------|
A|---------------------------------------------|
E|---------------------------------------------|
    Tú tienes la receta    la fórmula secreta

E|-----------------------------------|
B|--5--5--5--1--1--1--1--7--5--3--5--|
G|-----------------------------------|
D|-----------------------------------|
A|-----------------------------------|
E|-----------------------------------|
     Para poner en ritmo mi corazón

E|---------------------------------------------|
B|--5--5--5--1--1--1--3---5--5--5--1--1--1--3--|
G|---------------------------------------------|
D|---------------------------------------------|
A|---------------------------------------------|
E|---------------------------------------------|
     No existe medicina, doctores ni aspirina

E|-----------------------------------|
B|--5--5--5--1--1--1--1--7--5--3--5--|
G|-----------------------------------|
D|-----------------------------------|
A|-----------------------------------|
E|-----------------------------------|
   Para el dolor que siente mi corazón

E|----------------------------|
B|--5--5--5--5--5--5--7--5--5-|
G|----------------------------|
D|----------------------------|
A|----------------------------|
E|----------------------------|
    casi no siento mis palpitos

E|----------------------------|
B|--5--5--5--5--5--5--7--5--5-|
G|----------------------------|
D|----------------------------|
A|----------------------------|
E|----------------------------|
  arriesgate a que venga la paramédico

E|----------------------------------------------------|
B|--5--5--5--5--5--5--7--5--5--------5--3--7--7--7--5-|
G|----------------------------------------------------|
D|----------------------------------------------------|
A|----------------------------------------------------|
E|----------------------------------------------------|
  necesito que me des un electroshock eee de tu calor



*Se repite un poco y esto va después:
E|-------------------------------------|
B|--0--0--0--8--7--5--0--0--0--8--7--5v|
G|-------------------------------------|
D|-------------------------------------|
A|-------------------------------------|
E|-------------------------------------|
    Ven aquí rápido,  ven aquí rápidooo


*Y de aquí pueden guiarse con los acordes que ya estaban en la cuerda:

               C   D   Em 
A)Ven y sana mi dolor
                        C   D   Em 
tienes la cura de este amor
             C      D          Em 
hago este llamado para que tu vuelvas
                       C                  D          Em 
tu no vez que estoy sufriendo, que es muy dura esta prueba

A)ay un hombre moribundo aqui
  dime quien lo puede revivir(biss)

A)tu tienes la reseta
  A  formula secreta
  para poner en ritmo mi corazón

A)no existe medicina, doctores ni aspirina
  para el dolor que siente mi corazon

A)casi no siento mis palpitos
  arriesgate a que venga la paramedico
  necesito que me des un electroshop eee de tu calor

A)tu suero de cariño, es lo que me toca
  quiero que me des respiracion boca a boca
  y que la camilla sea nuestra camita

A)ay un hombre caido que a ti te necesita ay hombe

A)ven aqui rapido
  ven aqui rapido
  es un llamado de emergencia baby...
  ven aqui rapido ven aqui rapido

A)ven y sana mi dolor
  tienes la cura de este amor
  hago este llamado para que tu vueltas
  tu no vez que estoy sufriendo, que es muy dura esta prueva

A)y abrazame...y dime que me amas
  abrazame...y dime que me amas

A)quedate...ey nena que alivia mi alma inyecta de calma
  quedate...que tu no vez que por tu amor yo me muero ma

A)sin ti mi camino se desaparece
  sin ti las espinas son las que florecen
  sin ti yo no vivo
  sin ti no se escribe la historia del amor
  sin ti mi poema se queda sin verso
  sin ti no ilumina la estrella en mi universo
  y sin hospitales van disminullendo ven por favor

A)ven aqui rapido
  ven aqui rapido
  es un llamado de emergencia baby...
  ven aqui rapido ven aqui rapido

A)ven y sana mi dolor
  tienes la cura de este amor
  hago este llamado para que tu vueltas
  tu no vez que estoy sufriendo, que es muy dura esta prueva

A)ven aqui rapido
  ven aqui rapido
  ven aqui rapido
  ven aqui rapido
  ven aqui rapido
  ven aqui rapido

* Ahora está más completa le saqué lo mejor que pude.
La tablatura suena mejor al comienzo y en los coros,
para el resto quedan bien los acordes suena mejor con
dos guitarras pero es rápida por eso primero memoricen
y mecanicen los movimientos!
Composição de Daddy Yankee
32 exibições
    • ½ Tom
    • Am
    • Bbm
    • Bm
    • Cm
    • C#m
    • Dm
    • Ebm
    • Em
    • Fm
    • F#m
    • Gm
    • G#m
  • Adicionar à lista

    0 comentários

    Ver todos os comentários

    Conseguiu tocar?

    0 Tocaram 0 Ainda não

    Grave um vídeo tocando Llamada de Emergencia e nos envie!

    00:00 / 00:00
    Outros vídeos desta música
    Repetir Qualidade Automático
    Outros vídeos desta música
    00:00 / 00:00
    Automático

    Cifra Club Pro

    Aproveite o Cifra Club com benefícios exclusivos e sem anúncios
    Cifra Club Pro
    Aproveite o Cifra Club com benefícios exclusivos e sem anúncios
    OK