Cifra Club

Lose Yourself To Dance

Daft Punk

Tab de baixo: Principal
[Introdução]

Parte 1 de 3

   T.................P T...........
G|----------------------------------------------|
D|-------------------x--------------------------|
A|----------------------------------------------|
E|-0-0-x-0-0-0-0--0----0-0--0-0-0-0-------------|
B|----------------------------------------------|

   T..........................................
G|----------------------------------------------|
D|----------------------------------------------|
A|----------------------------------------------|
E|-3-3-x-3-3-3-3--3-3-x-3-3-3-3--7-7-x-7-7-7-7--|
B|----------------------------------------------|

   T......................................
G|----------------------------------------------|
D|----------------------------------------------|
A|----------------------------------------------|
E|-7-7-x-7-7-7-7--5-5-x-5-5-5-5--5-5-x-5-5------|
B|----------------------------------------------|

   P T  P 
G|-7----7h9-------------------------------------|
D|----------------------------------------------|
A|----------------------------------------------|
E|----------------------------------------------|
B|---x------------------------------------------|

Parte 2 de 3

   T.................P T............
G|-------------------7--------------------------|
D|----------------------------------------------|
A|----------------------------------------------|
E|-0-0-x-0-0-0-0--x----0-0-x-0-0-0-0------------|
B|----------------------------------------------|

   T.............................
G|----------------------------------------------|
D|----------------------------------------------|
A|----------------------------------------------|
E|-3-3-x-3-3-3-3--3-3-x-3-3-3-3-5---------------|
B|----------------------------------------------|

   T..............  P T............
G|------------------x---------------------------|
D|----------------------------------------------|
A|----------------------------------------------|
E|-7-7-x-7-7-7-7-x----7-7-x-7-7-7-7-------------|
B|----------------------------------------------|

Parte 3 de 3

   T............. P T  P  T  P  T  P  T P  T T  
G|----------------6-----------------------------|
D|---------------------7-----9-----11---9-------|
A|----------------------------------------------|
E|-5-5-x-5-5-5-5----5-----7-----9-----7----5-5--|
B|----------------------------------------------|
  
   T T
G|----------------------------------------------|
D|----------------------------------------------|
A|----------------------------------------------|
E|-3-2------------------------------------------|
B|----------------------------------------------|

[Primeira parte]

I know you don't get chance to take...

Parte 1 de 3

   T.................P T............
G|-------------------7--------------------------|
D|----------------------------------------------|
A|----------------------------------------------|
E|-0-0-x-0-0-0-0--x----0-0-x-0-0-0-0------------|
B|----------------------------------------------|

   T............................................
G|----------------------------------------------|
D|----------------------------------------------|
A|----------------------------------------------|
E|-3-3-x-3-3-3-3--3-3-x-3-3-3-3-5--7-7-x-7-7-7-7|
B|----------------------------------------------|

   T  P T........................... T  P T....
G|----x---------------------------------6-------|
D|----------------------------------------------|
A|----------------------------------------------|
E|-x----7-7-x-7-7-7-7--5-5-x-5-5-5-5-x----5-5-x-|
B|----------------------------------------------|

   T...........
G|----------------------------------------------|
D|----------------------------------------------|
A|----------------------------------------------|
E|-5-5-5-5--3-2---------------------------------|
B|----------------------------------------------|

[Refrão]

Lose yourself to dance...

Parte 1 de 4

   T.................P T............
G|-------------------7--------------------------|
D|----------------------------------------------|
A|----------------------------------------------|
E|-0-0-x-0-0-0-0--x----0-0-x-0-0-0-0------------|
B|----------------------------------------------|

   T................P T......................   
G|------------------7---------------------------|
D|----------------------------------------------|
A|----------------------------------------------|
E|-3-3-x-3-3-3-3-x----3-3-x-3-3-3-3-5--7-7-x----|
B|----------------------------------------------|

Parte 2 de 4

   T........ P T...........................   
G|-----------x----------------------------------|
D|----------------------------------------------|
A|----------------------------------------------|
E|-7-7-7-7-x---7-7-x-7-7-7-7--5-5-x-5-5-5-5-----|
B|----------------------------------------------|

   T................................
G|-x-x-11-11p9-9--------------------------------|
D|---------------12-12p11-11p9-7-7h9------------|
A|----------------------------------------------|
E|----------------------------------------------|
B|----------------------------------------------|

Parte 3 de 4

  T.................P T............
G|-------------------7--------------------------|
D|----------------------------------------------|
A|----------------------------------------------|
E|-0-0-x-0-0-0-0--x----0-0-x-0-0-0-0------------|
B|----------------------------------------------|

   T................P T......................   
G|------------------7---------------------------|
D|----------------------------------------------|
A|----------------------------------------------|
E|-3-3-x-3-3-3-3-x----3-3-x-3-3-3-3-5--7-7-x----|
B|----------------------------------------------|

Parte 4 de 4

   T...................T  P T  P  T  P  T  P  
G|----------------------------------------------|
D|------------------------9----11----12----11---|
A|----------------------------------------------|
E|-7-7-7-7--7-7-x-7-7--7----9-----10----9-------|
B|----------------------------------------------|
 
   T............
G|----------------------------------------------|
D|----------------------------------------------|
A|----------------------------------------------|
E|-5-5-x-5-5-5-5--------------------------------|
B|----------------------------------------------|

[Segunda parte]

I know you don't get chance to take...

Parte 1 de 3

   T.................P T............
G|-------------------7--------------------------|
D|----------------------------------------------|
A|----------------------------------------------|
E|-0-0-x-0-0-0-0--x----0-0-x-0-0-0-0------------|
B|----------------------------------------------|

   T............................................
G|----------------------------------------------|
D|----------------------------------------------|
A|----------------------------------------------|
E|-3-3-x-3-3-3-3--3-3-x-3-3-3-3-5--7-7-x-7-7-7-7|
B|----------------------------------------------|

   T  P T........................... T  P T....
G|----x---------------------------------6-------|
D|----------------------------------------------|
A|----------------------------------------------|
E|-x----7-7-x-7-7-7-7--5-5-x-5-5-5-5-x----5-5-x-|
B|----------------------------------------------|

   T...........
G|----------------------------------------------|
D|----------------------------------------------|
A|----------------------------------------------|
E|-5-5-5-5--3-2---------------------------------|
B|----------------------------------------------|

[Refrão 02]

Lose yourself to dance...

Parte 1 de 6

   T.................P T............
G|-------------------7--------------------------|
D|----------------------------------------------|
A|----------------------------------------------|
E|-0-0-x-0-0-0-0--x----0-0-x-0-0-0-0------------|
B|----------------------------------------------|

   T................P T......................   
G|------------------7---------------------------|
D|----------------------------------------------|
A|----------------------------------------------|
E|-3-3-x-3-3-3-3-x----3-3-x-3-3-3-3-5--7-7-x----|
B|----------------------------------------------|

Parte 2 de 6

   T........ P T...........................   
G|-----------x----------------------------------|
D|----------------------------------------------|
A|----------------------------------------------|
E|-7-7-7-7-x---7-7-x-7-7-7-7--5-5-x-5-5-5-5-----|
B|----------------------------------------------|

   T................................
G|-x-x-11-11p9-9--------------------------------|
D|---------------12-12p11-11p9-7-7h9------------|
A|----------------------------------------------|
E|----------------------------------------------|
B|----------------------------------------------|

Parte 3 de 6

  T.................P T............
G|-------------------7--------------------------|
D|----------------------------------------------|
A|----------------------------------------------|
E|-0-0-x-0-0-0-0--x----0-0-x-0-0-0-0------------|
B|----------------------------------------------|

   T................P T......................   
G|------------------7---------------------------|
D|----------------------------------------------|
A|----------------------------------------------|
E|-3-3-x-3-3-3-3-x----3-3-x-3-3-3-3-5--7-7-x----|
B|----------------------------------------------|

Parte 4 de 6

   T...................T  P T  P  T  P  T  P  
G|----------------------------------------------|
D|------------------------9----11----12----11---|
A|----------------------------------------------|
E|-7-7-7-7--7-7-x-7-7--7----9-----10----9-------|
B|----------------------------------------------|

   T............. P T  P  T  P  T  P  T P  T T  
G|----------------6-----------------------------|
D|---------------------7-----9-----11---9-------|
A|----------------------------------------------|
E|-5-5-x-5-5-5-5----5-----7-----9-----7----5-5--|
B|----------------------------------------------|
  
   T T
G|----------------------------------------------|
D|----------------------------------------------|
A|----------------------------------------------|
E|-3-2------------------------------------------|
B|----------------------------------------------|

Parte 5 de 6 ( tocar 2x )

   T T P  P T T               T T P P T T T T
G|--------x-------------17/23-------x-----------|
D|-----2-----------2/16-----------2-------------|
A|----------------------------------------------|
E|-0-x------0-0---------------0-x-----0-0-0-x---|
B|----------------------------------------------|

   T  P T  T......T T  P P T........  T T P P
G|----------------------------------------------|
D|----5----------------5-x----------------9-x---|
A|----------------------------------------------|
E|-3----3--3-3-3--3-x------3-3-3-x-5--7-x-------|
B|----------------------------------------------|

   T T T  T T P P T  T  P T  P  T  P  T P
G|----------------------------------------------|
D|------------9-x-------9----11----12---11------|
A|----------------------------------------------|
E|-7-7-7--7-x-----7--7----9-----10----9---------|
B|----------------------------------------------|

   T T P P T T T  T  P T  P T  P  T  P T.......     
G|----------------------------------------------|
D|-----7-x-----------7----9----11----9----------|
A|----------------------------------------------|
E|-5-x-----5-5-5--5----7----9-----7----5-5--3-2-|
B|----------------------------------------------|

Parte 6 de 6

   T T P  P T T               T T P P T T T T
G|--------x-------------17/23-------x-----------|
D|-----2-----------2/16-----------2-------------|
A|----------------------------------------------|
E|-0-x------0-0---------------0-x-----0-0-0-x---|
B|----------------------------------------------|

   T  P T  T......T T  P P T........  T T P P
G|----------------------------------------------|
D|----5----------------5-x----------------9-x---|
A|----------------------------------------------|
E|-3----3--3-3-3--3-x------3-3-3-x-5--7-x-------|
B|----------------------------------------------|

   T T T  T T P P T  T  P T  P  T  P  T P
G|----------------------------------------------|
D|------------9-x-------9----11----12---11------|
A|----------------------------------------------|
E|-7-7-7--7-x-----7--7----9-----10----9---------|
B|----------------------------------------------|

   T T P P T T T  T  P T  P T  P  T  P      
G|----------------------------------------------|
D|-----7-x-----------7----9----11----9----------|
A|----------------------------------------------|
E|-5-x-----5-5-5--5----7----9-----7-------------|
B|----------------------------------------------|

[Introdução 02]

Parte 1 de 2

   T.................P T............
G|-------------------7--------------------------|
D|----------------------------------------------|
A|----------------------------------------------|
E|-0-0-x-0-0-0-0--x----0-0-x-0-0-0-0------------|
B|----------------------------------------------|

   T............................................
G|----------------------------------------------|
D|----------------------------------------------|
A|----------------------------------------------|
E|-3-3-x-3-3-3-3--3-3-x-3-3-3-3-5--7-7-x-7-7-7-7|
B|----------------------------------------------|

   T  P T...........................           
G|----x-----------------------------------------|
D|----------------------------------------------|
A|----------------------------------------------|
E|-x----7-7-x-7-7-7-7--5-5-x-5-5-5-5------------|
B|----------------------------------------------|

   T P T P T P  T  P T T  T T 
G|----------------------------------------------|
D|---7---9---11----9----------------------------|
A|----------------------------------------------|
E|-5---7---9----7----5-5--3-2-------------------|
B|----------------------------------------------|

Parte 2 de 2

   T...................P........................
G|---------------------x------------------------|
D|----------------------------------------------|
A|----------------------------------------------|
E|-7-7-x-7-7-7-7--x-x----7-7-x-7-7-7-7--5-5-x---|
B|----------------------------------------------|

   T......           
G|----------------------------------------------|
D|----------------------------------------------|
A|----------------------------------------------|
E|-5-5-5-5--------------------------------------|
B|----------------------------------------------|

[Terceira parte]

I know you don't get chance to take...

Parte 1 de 3

   T.................P T............
G|-------------------7--------------------------|
D|----------------------------------------------|
A|----------------------------------------------|
E|-0-0-x-0-0-0-0--x----0-0-x-0-0-0-0------------|
B|----------------------------------------------|

   T............................................
G|----------------------------------------------|
D|----------------------------------------------|
A|----------------------------------------------|
E|-3-3-x-3-3-3-3--3-3-x-3-3-3-3-5--7-7-x-7-7-7-7|
B|----------------------------------------------|

   T  P T...........................    
G|----x-----------------------------------------|
D|----------------------------------------------|
A|----------------------------------------------|
E|-x----7-7-x-7-7-7-7--5-5-x-5-5-5-5------------|
B|----------------------------------------------|

   T................................
G|-x-x-11-11p9-9--------------------------------|
D|---------------12-12p11-11p9-7-7h9------------|
A|----------------------------------------------|
E|----------------------------------------------|
B|----------------------------------------------|

[Refrão 3]

Lose yourself to dance...

Parte 1 de 3 ( 4x + fade out )

   T.................P T............
G|-------------------7--------------------------|
D|----------------------------------------------|
A|----------------------------------------------|
E|-0-0-x-0-0-0-0--x----0-0-x-0-0-0-0------------|
B|----------------------------------------------|

   T................P T......................   
G|------------------7---------------------------|
D|----------------------------------------------|
A|----------------------------------------------|
E|-3-3-x-3-3-3-3-x----3-3-x-3-3-3-3-5--7-7-x----|
B|----------------------------------------------|

Parte 2 de 3

   T........ P T...........................   
G|-----------x----------------------------------|
D|----------------------------------------------|
A|----------------------------------------------|
E|-7-7-7-7-x---7-7-x-7-7-7-7--5-5-x-5-5-5-5-----|
B|----------------------------------------------|

   T................................
G|-x-x-11-11p9-9--------------------------------|
D|---------------12-12p11-11p9-7-7h ------------|
A|----------------------------------------------|
E|----------------------------------------------|
B|----------------------------------------------|
exibições 791
Composição: Guy-Manuel de Homem-Christo / Thomas Bangalter Colaboração e revisão:
  • Reginaldo Costa
  • Thiago Almeida

0 comentários

mostrar mais comentários

Conseguiu tocar?

0 tocaram 0 ainda não

Grave um vídeo tocando Lose Yourself To Dance e mande pra gente!

00:00 / 00:00
outros vídeos desta música
repetir qualidade Automático
Outros vídeos desta música
00:00 / 00:00
Automático
Capítulos
  • Tocando a música
  • Apresentação / Equipamentos
  • Afinação
  • TAB - Introdução
  • TAB - Primeira Parte
  • TAB - Refrão
  • TAB - Refrão 2
  • TAB - Introdução 2
  • TAB - Terceira Parte
  • TAB - Refrão 3
  • Encerramento
OK