Cifra Club

Somehting About Us

Daft Punk

Tab de baixo: Principal


Transcribed by  Liis


Bass01 Riff

G---------------------------------------------------------------------------|
D---------5---------------3---------------7----------------5----------------|
A---------------------------------------------------------------------------|
E---------------------------------------------------------------------------|


Bass01 Riff2

G-----------------------------------------5----------------3----------------|
D---------5---------------4-------------------------------------------------|
A---------------------------------------------------------------------------|
E---------------------------------------------------------------------------|


Bass02 Riff

G-------------------------------------------7-------------------------------|
D-----------8---------------7--------------------------------5--------------|
A-----------------------------------------5------5--------------------------|
E---------6-----66--------5-----5--------------------------3------3---------|


Bass Solo1

G---------------------------------------------------------------------------|
D---------------------------------------------------------------------------|
A----------------------5-3--------------------------------------------------|
E-----13-5-----------------------1-3-5-1-3-----------------5-3-3-1-1--------|

Bass Solo2

G---------------------------------------------------------------------------|
D---------------------------------------------------------------------------|
A----------------------5-7-------7-8-7-5-3----------------------------------|
E--------5-----------------------------------------------1-5-33-1-1---------|
B---3-1-3----------------------------------------------03-------------------|
exibições 1.975

0 comentários

mostrar mais comentários

Conseguiu tocar?

0 tocaram 0 ainda não

Grave um vídeo tocando Somehting About Us e mande pra gente!

00:00 / 00:00
outros vídeos desta música
repetir qualidade Automático
Outros vídeos desta música
00:00 / 00:00
Automático
OK