Cifra Club

Land Of The Promise

Damian Marley

Tab de baixo: Principal
exibições 178
Riff 1:
 
G|--------------------------------|--------------------------------| 
D|------------3-5-----------------|------------3-5-----------------| 
A|5-------5-5-------------3---3---|5-------5-5-------------3-------| 
E|----------------5---5-----------|----------------5---5-----1-1---| 

Riff 2:

G|--------------------------------|--------------------------------| 
D|--------3-3-3-3-5---5---8-7-7---|--------3-3-3-3-5---5---7-------| 
A|----5---------------------------|----5---------------------8-8---| 
E|----------------.---------------|----------------.---------------| 

G|--------------------------------|--------------------------------| 
D|--------3-3-3-3-5---5---8-7-7---|------------3-5-----------------| 
A|----5---------------------------|--------5-5-------------3-------| 
E|----------------.---------------|----------------5---5-----------|
Composição: Lica /PeixeColaboração e revisão:
  • Everton Damascena

0 comentários

    mostrar mais comentários

    Conseguiu tocar?

    0tocaram0ainda não

    Grave um vídeo tocando Land Of The Promise e mande pra gente!

    00:00 / 00:00
    outros vídeos desta música
    repetirqualidadeautomática
    Outro vídeos desta música
      00:00 / 00:00
      automática
      OK