Desencontros

Dândis

Composição de: Altair Lech
tom: G
[Intro]

         G                          D                                             C9
E|-------------5-----7-------------------5------7-------5-----------------------------3---2----|
B|-------------8-----8-------------------7------5-------5------8---------------------3---3-----|
G|--------7-------------------------7-----------------------------7---------------0------------|
D|---5-----------------------------------------------------------------------------------------|
A|------------------------------5----------------------------------------------3---------------|
E|---------------------------------------------------------------------------------------------|

E|--------3----2-----------3-----5----7-----------|
B|--------3----3-----------3-----5----7-----------|
G|----0---------------0---------------------------|
D|------------------------------------------------|
A|------------------------------------------------|
E|------------------------------------------------|

E|--------3----2-----------3-----5----7-----------|
B|--------3----3-----------3-----5----7-----------|
G|----0---------------0---------------------------|
D|------------------------------------------------|
A|------------------------------------------------|
E|------------------------------------------------|

      G            D                    C9
Desencontros, desafiam, me afastam de você
      G                D                      C9
Desencantos, se eu te vejo desdenhando meu querer
     G          D                         C9
Diferentes, inocentes na essência do seu ser
      G             D                      C9
Dissonantes, no compasso de uma música qualquer
Que eu nem sei de quem é

          Em       C
Somos dois, somos nada
      G           F              C
 Tudo aquilo que podemos descrever
     Em         Am
Inventando as palavras
      G           F            C
Sussurrando numa forma de dizer
              A7
 O que não se ouve todo dia

                         G        F          C
 Um eu te amo, um eu te quero bem perto de mim
 G          F       C
 Quero bem perto de mim
                         G        F         C
 Um eu te amo, um eu te quero bem perto de mim

  G        F          C
Quero bem perto de mim
                           G
Mas desencontros são assim

[Solo] Em  C  G  F  C  A7
Página 1 / 1

Letras e título
Acordes e artista

resetar configurações
OK