Cifra Club

Twist Of Cain

Danzig

Cifra: Principal (violão e guitarra)
tom: C
Riff A
E|-|-------------------------|--------------------------|
B|-|-------------------------|--------------------------|
G|-|-------------------------|--------------------------|
D|-|-------------------------|--------------------------|
A|-|--7b---0--6--0--3--0--0--|-7b---0---6---0--3--0--0--|
E|-|-------------------------|--------------------------|

E|-|-------------------------|----------|
B|-|-------------------------|----------|                quando chegar aqui toque a nota 2 vezes uma puuxando a
G|-|-------------------------|----------|                ^ corda e outra com a corda ja puxada
D|-|-------------------------|-7-7-7-7--|               /
A|-|--7b---0--6--0--3--0-0-0-|-6-6-6-6--|              /
E|-|----\--------------------|----------|             /
         \___________________________________________/
Riff B
E|-|-------------------------|
B|-|-------------------------|
G|-|-------------------------|
D|-|-------------------------|
A|-|--7-7-7---10--10--10-----|
E|-|--5-5-5---8---8---8------|

Riff C
E|-|-----------------|-----------------|
B|-|-----------------|-----------------|
G|-|-----5-----------|-----------------|
D|-|--7----7-5-------|-----------5-7~--|
A|-|--------------6--|---------6-------|
E|-|------------8----|-5-5-5-7---------|

Yea, yea, yea
Ooh
I can feel it move me
Feel it shove me
As I break the law
Said yea
I can feel its jabbing
Cuts the numbness then i
I come alive yea

Twist of cain
Yea drives my brain
Yea twist of cain
Make me come alive
cause it does

Yea twist of cain
Yea drives my brain
Yea twist of cain
Make me come alive

Said yea
I took it standing
Broke commandments
And he tumbled like a toy
Blood
Like a crimson highway
Spreading out
From his forehead to the ground

Twist of cain
Yea drives my brain
Yea twist of cain
Make me come alive
cause it does

Yea twist of cain
Yea drives my brain
Yea twist of cain
Make me come alive
Wo-oh, yea

Wo-oh God above
Feel a twist of cain
Inside a beating heart, well
Wo-oh
Wanna know
Got a little twist of cain
From the God below, yea

Yae
I know my breeding
Know my father
He was born of light
Said yea
Cant hardly stand it
Cuts me down the middle
Then i
I come alive yea

Twist of cain
Yea drives my brain
Yea twist of cain
Make me come alive
cause it does

Yea twist of cain
Yea drives myt brain
Yea twist of cain
Make me come alive
Come alive
Wo-oh, yea

Wo-oh
God above
Feel a twist of cain
Inside a beating heart, yea
Wo-oh
Wanna know
Got a little twist of cain
From the God below

Wo-oh, wo-oh
Feel a twist of cain
Inside a beating heart
Wo-oh, wo-oh
Got a little twist of cain
From the God below, yea

by: voc98
00:00 / 00:00
Outros vídeos desta música
Repetir
Outros vídeos desta música
Composição de Glenn Danzig
Colaboração e revisão:
  • Victor Cintra
  • Ruy Martins.
3.531 exibições
    • ½ Tom
    • A
    • Bb
    • B
    • C
    • Db
    • D
    • Eb
    • E
    • F
    • F#
    • G
    • Ab
  • Adicionar à lista

    0 comentários

    Ver todos os comentários

    Conseguiu tocar?

    2 Tocaram 0 Ainda não

    Grave um vídeo tocando Twist Of Cain e nos envie!

    00:00 / 00:00

    Cifra Club Pro

    Aproveite o Cifra Club com benefícios exclusivos e sem anúncios
    Cifra Club Pro
    Aproveite o Cifra Club com benefícios exclusivos e sem anúncios
    OK