Cifra Club

Maid Of Orleans

Dark Moor

Cifra: Principal (violão e guitarra)
tom: C
.  - palm mute                  /  - slide up to 
\  - slide down to              ~  - vibrato              
h  - hammer on                  b  - bend  
p  - pull off                   Suffixes for bend     
ph - pinch harmonic             f - full bend    h - half bend 
*  - see comment                r - release      t - tap bend 
X  - percussion mute            ~ - vibrato bend 
@  - slight palm mute           () - ghost note, sustained note 

MAID OF ORLEANS 

Gtr I 1/2 Step Down    

||--0-7-0-8-0-7-----------0-7-0-8-0-7--10p8p7-----0-7-0-8-0-7---------------| 
||o--------------10p8p7h8---------------------10--------------10-7-8---7-8--| 
||-------------------------------------------------------------------9------| 
||--------------------------------------------------------------------------| 
||o-------------------------------------------------------------------------| 
||--------------------------------------------------------------------------| 

|-------------| 
|-10-7-8-10--o| 
|-------------| 
|-------------| 
|------------o| 
|-------------| 

||------------------------------------------------------------------------------| 
||o-0-7-0-8-0-7---------0-7-0-8-0-7-10p8p7h8--0-7-0-8-0-7----------------------o| 
||--------------9p7p6h7-----------------------------------9-6-7----6-7-9-6-7-9--| 
||---------------------------------------------------------------9--------------| 
||o----------------------------------------------------------------------------o| 
||------------------------------------------------------------------------------| 

|------------------------------------------------------------------------| 
|------------------------------------------------------------------------| 
|------------------------------------------------------------------------| 
|-----------------------5-----5-----5-------------------7-----7-----7----| 
|-------2-----2-----2---3-3-3-3-3-3-3---5-----5-----5---5-5-5-5-5-5-5----| 
|-------0-0-0-0-0-0-0-------------------3-3-3-3-3-3-3--------------------| 

|--------------------------------------------------| 
|-------------------------------------------------o| 
|-----------------------------------------------7--| 
|-----------------5-----5-----5--2-----2-----2--7--| 
|-2-----2-----2---3-3-3-3-3-3-3--0-0-0-0-0-0-0--5-o| 
|-0-0-0-0-0-0-0------------------------------------| 

Verse 1 

Tremolo pickin' 
||---------------------------------------| 
||o-------------------------------------o| 
||---------------------------------------| 
||---------------------------------------| 
||o-7-10-9-10-7-10-9-10-6-9-7-9-6-9-7-9-o| 
||---------------------------------------| 

||--------------------------------------------------------------------------------| 
||o-------------------------------------------------------------------------------| 
||--------------------------------------------------------------------------------| 
||--------------------------------------------------------------------------------| 
||o--14-10-10-14-10-10-14-10-14-10-10-14-10-10-14-10-14-9-9-14-9-9-14-9-14-9-9-14-| 
||--------------------------------------------------------------------------------| 

|-----------| 
|----------o| 
|-----------| 
|-----------| 
|-9-9-14-9-o| 
|-----------| 

||-----------------------------------------------------------------------------| 
||o-12h13p12p10-12-----------10h12p10p8-10----------12h13p12p10-12-------------| 
||-----------------9-11-12-9---------------7-9-11-7----------------9-11-12-9---| 
||-----------------------------------------------------------------------------| 
||o----------------------------------------------------------------------------| 
||-----------------------------------------------------------------------------| 

|-------------------------||-||----------------||-||------------||-||---------------|| 
|------------------------o||-||o--------------o||-||o----------o||-||o-------------o|| 
|-------9-12-11----11-14--||-||----------------||-||------------||-||---------------|| 
|----10---------12--------||-||---Verse2-------||-||----Chorus--||-||---Intro-------|| 
|-10---------------------o||-||o--------------o||-||o----------o||-||o-------------o|| 
|-------------------------||-||----------------||-||------------||-||---------------|| 

||-----------------------------||-||-----------------||-||---------------|| 
||o---------------------------o||-||o---------------o||-||o-------------o|| 
||--9--5--7--------------------||-||-----------------||-||---------------|| 
||--9--5--7-------------5---4--||-||----Chorus-------||-||---Interlude---|| 
||o-7--3--5-----5-----2-3-3-2-o||-||o---------------o||-||o-------------o|| 
||----------3-3-3-2-2-0---1----||-||-----------------||-||---------------|| 

||--14h15p14p12-14-------------12h14p12p10-12-------------14h15p14p12-14----------------------| 
||o----------------12-14-15-12----------------10-12-14-10----------------12-14-15-12-12----12-| 
||--------------------------------------------------------------------------------------12----| 
||--------------------------------------------------------------------------------------------| 
||o-------------------------------------------------------------------------------------------| 
||--------------------------------------------------------------------------------------------| 

|-------------------| 
|-15--14----14-17--o| 
|--------14---------| 
|-------------------| 
|------------------o| 
|-------------------| 

Tapping part 
        
||------------------------------------------------------------------------------------------| 
||o--T----------T----------T----------T----------T----------T----------T----------T---------| 
||--16-9h11h12-16-9h11h12-17-9h11h12-16-9h11h12-17-9h11h12-17-9h11h12-19-9h11h12-17-9h11h12-| 
||------------------------------------------------------------------------------------------| 
||o-----------------------------------------------------------------------------------------| 
||------------------------------------------------------------------------------------------| 

|------------------------------------------------------------------------------------------| 
|-T----------T----------T-----------T----------T----------T----------T----------T---------o| 
|16-9h11h12-16-9h11h12-17-9h11h12--16-9h11h12-21-9h11h12-21-9h11h12-17-9h11h12-17-9h11h12--| 
|------------------------------------------------------------------------------------------| 
|-----------------------------------------------------------------------------------------o| 
|------------------------------------------------------------------------------------------| 

||-----------------------------------------------------------------------------| 
||o----10-12-13-12-10----------10-12-10---------------10----------------------o| 
||--12----------------12-11-12----------12-11-9-11-12----12-11-9-8-9-11-12-----| 
||-----------------------------------------------------------------------------| 
||o---------------------------------------------------------------------------o| 
||-----------------------------------------------------------------------------|
00:00 / 00:00
Outros vídeos desta música
Repetir
Outros vídeos desta música
Composição de Enrik Garcia
Colaboração e revisão:
  • Taino Vieira
719 exibições
    • ½ Tom
    • A
    • Bb
    • B
    • C
    • Db
    • D
    • Eb
    • E
    • F
    • F#
    • G
    • Ab
  • Adicionar à lista

    0 comentários

    Ver todos os comentários

    Conseguiu tocar?

    0 Tocaram 0 Ainda não

    Grave um vídeo tocando Maid Of Orleans e nos envie!

    Entre para oCifra Club PRO

    Tenha acesso a benefícios exclusivos no App e no Site

    • Chega de anúncios

    • Prioridade de compra em lançamentos

    • Mais recursos no app do Afinador

    • Atendimento Prioritário

    • Descontos nos produtos Cifra Club

    • Ajude a produzir mais conteúdo

    00:00 / 00:00

    Cifra Club Pro

    Aproveite o Cifra Club com benefícios exclusivos e sem anúncios
    Cifra Club Pro
    Aproveite o Cifra Club com benefícios exclusivos e sem anúncios
    OK