Cifra Club

Aprenda

Entre Os Nossos Mundos

Darvin

Cifra: Principal (violão e guitarra)
tom: A
Intro: A  D
E|--------------------------------|
B|--------------------------------|
G|--7-6----9----7-7-6-------------|  (2x)
D|------7-------------7--6-7-9----|
A|--------------------------------|
E|--------------------------------|

       A
Espalhei
                        D
Velhas fotos e algumas cartas pelo chão
        A
Eu já nem
                               D
Me lembrava de como o sol brilhava no verão
    A                         D
Tentei guardar um pouco de você nas minhas canções
    A
Perdi meus passos em calçadas
 D
Dias de ilusões
E|-----0-----0----0------------------|
B|------------------------3-2-0------|
G|---2-----2----2------2--------2----|  (2x)
D|-------0-----------0---------------|
A|------------2----------------------|
E|-2---------------------------------|

          F#m         D
Mas nada que eu diga pode mudar
               Bm               D
E nada que eu faça te faria voltar
             F#m
E os anos aumentam esse muro
Bm                  D
Entre nossos mundos e nos deixam mudos
                   A       D
Sem saber o que dizer

( A  D )

      A
Esqueci
                              D
Das promessas e juras que eu sem querer desfiz
      A
E corri
                          D
No deserto de sonhos mas não te deixei seguir
      A                          D
E as portas que se abriam davam no mesmo lugar
       A                         D
Um castelo de estátuas que me olhavam sem falar

               F#m         D
E nada que eu diga pode mudar
               Bm               D
E nada que eu faça te faria voltar
             F#m
E os anos aumentam esse muro
Bm                  D
Entre nossos mundos e nos deixam mudos
                   A        Bm
Sem saber o que dizer
      C#m             D          E
Toda vez que nossas vidas se esbarram
    F#m        D
E acabam derretendo todo o gelo
        A        Bm
Que se fez
       C#m         D         E
Os olhares ainda contam histórias
         F#m            D
E os segredos que ninguém além de nós

Ninguém além de nós

Pode saber

Solo: A  D
E|-5-4-2--------------5-4-2------------------|
B|-------5-2----------------5-2--------------|
G|-----------1h2-4-2------------2h4-2-1------|
D|--------------------------------------4----|
A|-------------------------------------------|
E|-------------------------------------------|

E|-5-4-2-------------5-4-2-----5-5-5-5-------|
B|-------5-2---------------5-2---3-3-3-------|
G|-----------1h2-4-2-------------------------|
D|-------------------------------------------|
A|-------------------------------------------|
E|-------------------------------------------|

               F#m         D
E nada que eu diga pode mudar
               Bm               D
E nada que eu faça te faria voltar
             F#m
E os anos aumentam esse muro
Bm                  D
Entre nossos mundos e nos deixam mudos
                   A        D
Sem saber o que dizer
Compositor não encontrado.
Colaboração e revisão:
  • Alexsander Avidago
  • Raul Moraes
3.917 exibições
    • ½ Tom
    • A
    • Bb
    • B
    • C
    • Db
    • D
    • Eb
    • E
    • F
    • F#
    • G
    • Ab
  • Adicionar à lista

    0 comentários

    Ver todos os comentários

    Conseguiu tocar?

    2 Tocaram 0 Ainda não

    Grave um vídeo tocando Entre Os Nossos Mundos e nos envie!

    00:00 / 00:00
    Outros vídeos desta música
    Repetir Qualidade Automático
    Outros vídeos desta música
    00:00 / 00:00
    Automático

    Cifra Club Pro

    Aproveite o Cifra Club com benefícios exclusivos e sem anúncios
    Cifra Club Pro
    Aproveite o Cifra Club com benefícios exclusivos e sem anúncios
    OK