Cifra Club

Aprenda

Pensa Em Mim

Darvin

Tab de baixo: Principal
G:---|------------------------------------------------------|
D:---|------------------------------------------------------|
A:---|--2-2-2---------5-5-5---------------------------------|     
E:---|---------3-3-3---------5-5-5--------------------------|  

(firula 1)
G:---|------------------------------------------------------|
D:---|------------------------------------------------------|
A:---|--2-2-2--------3-4-5--5-5----5-3----------------------|     
E:---|---------3-3-3---------------------5-5-5--------------|  

(firula 2)
G:---|------------------------------------------------------|
D:---|-----------------------------5-6-7--7---7-5-----------|
A:---|--2-2-2---------5-5-5-----------------------7-5--2----|     
E:---|---------3-3-3----------------------------------------|  

(firula 3)
G:---|------------------------------------------------------|
D:---|------------------------------------------------------|
A:---|--2-2-2---------5-5-5-------7-----7-2-----------------|     
E:---|---------3-3-3---------5--5---5-5---------------------|
Composição de Bernardo Faria / Conrado D'Ávila
Colaboração e revisão:
  • Álvaro Guedes
  • Renan Rossi
2.309 exibições

0 comentários

Ver todos os comentários
00:00 / 00:00
Outros vídeos desta música
Repetir Qualidade Automático
Outros vídeos desta música
00:00 / 00:00
Automático

Cifra Club Pro

Aproveite o Cifra Club com benefícios exclusivos e sem anúncios
Cifra Club Pro
Aproveite o Cifra Club com benefícios exclusivos e sem anúncios
OK