Cifra Club

Aint It Funny How Time Slips Away

Dave Matthews Band

Cifra: Principal
exibições 1.044
Tom: G
 Tabbed by Andy .
  
Tabbed By : Andy

i went to a dmb concert a few weeks ago and he played this song so when i got home i downloaded it and tabbed it out. here it is:

e-----2--x--x-----------------------------------------
B-----3--x--x-----------------------------------------
G-----2--x--x-----------------------------------------
D-0---------------------------------------------------
A--------------2-3-5----------------------------------
E-------------------------------------------------- x3

e-----3--x-x------------------------------------------
B-----3--x-x------------------------------------------
G-----0--x-x------------------------------------------
D-----0--x-x------------------------------------------
A-----2--x-x---2-3-5----------------------------------
E-3---3--x-x----------------------------------------- repeat the first part and play this again through the song 
:: Ultimate Guitar Archive :: 
http://* 



Acordes para:

    0 comentários

      mostrar mais comentários

      Conseguiu tocar?

      0tocaram0ainda não

      Grave um vídeo tocando Aint It Funny How Time Slips Away e mande pra gente!

      00:00 / 00:00
      outros vídeos desta música
      repetirqualidadeautomática
      Outro vídeos desta música
        00:00 / 00:00
        automática
        OK