Cifra Club

American Baby

Dave Matthews Band

Cifra: Principal
exibições 5.793
Tom: A
Verse/Chorus/Jam-Chords
e------------------------------------------------
b------------------------------------------------
g---4---4---------7---6--------------------------
d---x---x---------x---x--------------------------
a---2---2---------5---4--------------------------
e---3---3---------7---5--------------------------

Verse/Chorus-Violin plucking
e----7---10--9--7--5-----5-----------------------
b------------------------------------------------
g--7---7-------------7-7-------------------------
d------------------------------------------------
a------------------------------------------------
e------------------------------------------------

Breakdown
e------------------------------------------------
b------------------------------------------------
g------------------------------------------------
d------7---9-----11/12/11------------------------
a----5---------7---------------------------------
e--3-----5---5-----------------------------------

e------------------------------------------------
b------------------------------------------------
g------------------------------------------------
d-----7---9-----11/12/11/12/14-------------------
a---5---------7----------------------------------
e-3-----5---5------------------------------------

Letra

If these walls came crumblin' down
Fell so hard, to make us lose our faith
From what's left you'd figure it out
Still make lemonade taste like a sunny day

Stay, beautiful baby
I hope you
Stay, American baby
American baby

Nobody's laughing now
God's grace lost and the devil is proud
But I've been walking for a thousand miles
One last time, I could see you smile

I (I) hold (hold) on (on) to you
You bring me hope, I'll see you soon
And if I don't see you
I'm afraid we've lost the way

Stay, beautiful baby
I hope you
Stay, American baby
American baby

I (I) hold (hold) on (on) to you
You lift me up and always will
I see you in life
Hope I don't get left behind

I (I) hold (hold) on (on) to you
You bring me hope, I'll see you soon
And if I don't see you
I'm afraid we've lost the way

Stay, beautiful baby
I hope you
Stay, American baby
I hope you
Stay, beautiful baby
I hope you
Stay, American baby
American baby
Nobody's laughing now
But you could always make me laugh out loud
Acordes para:
    Composição: Mark BatsonColaboração e revisão:
    • Pedro Ostetti

    0 comentários

      mostrar mais comentários

      Conseguiu tocar?

      0tocaram0ainda não

      Grave um vídeo tocando American Baby e mande pra gente!

      00:00 / 00:00
      outros vídeos desta música
      repetirqualidadeautomática
      Outro vídeos desta música
        00:00 / 00:00
        automática
        OK