Crash Into Me

Dave Matthews Band

Composição de: David J. Matthews
transcribed by Matt (MtB*)


Intro
|-----------------------------------------------
|---------6--7--6----6--7--6----------------
|--7--9------------9------------9--7----7---
|----------------------------------------9------

Verse
|----------------------------------------------
|----------------------------------------------
|--4--0--2-------- 0--2--------------------
|-------------0--4----------0---------------
      Play when lead is hitting the bass notes

Before Chorus
|---------------------------------------------
|---------------------------------------------
|---------------------------------------------
|--12---4--5--7---0--2------------------
     Throw in a few slides

Ending
|--------------------------------------------
|--------------------------------------------
|--------------------------------------------
|--4--5--7--0----------------------------
     Played when Dave repeats "crash into me.." high
Página 1 / 1

Letras e título
Acordes e artista

resetar configurações
OK