Grey Street

Dave Matthews Band

Composição de: David J. Matthews
This is a prety easy song. It's easier to play with the music. Have fun!!!
Submitted by taylor Lornace.

tuning(EADG)
Album-Busted Stuff

Verse:
G/-----------------------------/
D/-----------------------------/
A/-2-----0---------0----0------/
E/----3-----2---3----3---------/

Chorus:
G/------------------------------------------------------------------------/
D/------------------------------------0-0-0-0-0-0-0-0---------------------/
A/-2-2-2-2-2-2-2-2---0-0-0-0-0-0-0-0--------------------------------------/
E/----------------------------------------------------3-3-3-3-3-3-3-3-3-3-/


Verse:12
Chorus:2
Verse:9
Chorus:3
Verse:10
Chorus:7
Verse:15
Página 1 / 1

Letras e título
Acordes e artista

resetar configurações
OK